PrimaNota.ru - самый крупный в мире бесплатный архив песенных текстов, аккордов, табулатур и нот


Girlschool - Wildlife - текст песни, таба, видео

Регистрация Запомнить меня
Войти через:  Facebook Google Twitter Vk Yandex Mail.ru

Girlschool - Wildlife - текст песни, таба, видео

Печатать
Просмотров: 97
-----------------------------------------------------------------------------
                            WILDLIFE - Girlschool
-----------------------------------------------------------------------------

Tabbed by: Anne Drury
Email: zerofret_ad@hotmail.com
Date: November 2, 2005

Written by: Kelly Johnson, Kim McAuliffe, Enid Williams
Album: "Screaming Blue Murder"     (1982, Bronze Records)

Notes:

-Tuning: Standard
-key of A, except for guitar solo section and final three Choruses, which 
 are in B -- guitar solo is in B minor
-4/4 time -- bar lines do indicate timing 


INTRO:

Pick scrape \    A5   


   A5               F5               A5               F5   G5
 E ----------------|----------------|----------------|----------------|
 B ----------------|----------------|----------------|---------------o|
 G ----------------|--------5-5p4---|----------------|-------5-5p4----| Play
 D ---7-7p5---5-7~-|--------------5-|---7-7p5---5-7~-|-------------5--|  2x
 A ---------7------|----------------|---------7------|---------------o|
 E ----------------|----------------|----------------|----------------|



1ST VERSE:

   A5               C5      G5       A5               C5      G5
 E ----------------|----------------|----------------|----------------|
 B ----------------|----------------|----------------|----------------|
 G ----------------|---5----4-------|----------------|---5-----4------|
 D ---7----5--7~---|-----------5~---|---7----5--7~---|------5-----5~--|
 A ----------------|----------------|----------------|----------------|
 E ----------------|----------------|----------------|----------------|
     All the faces    with one       Behind the     
                         expression,   windows,we're  all down at heel


   A5               C5      G5       A5               C5      G5
 E ----------------|----------------|----------------|----------------|
 B ----------------|----------------|----------------|----------------|
 G ----------------|---5----4-------|----------------|---5-----4------|
 D ---7----5--7~---|-----------5~---|---7----5--7~---|------5-----5~--|
 A ----------------|----------------|----------------|----------------|
 E ----------------|----------------|----------------|----------------|
    Don't expect                      It's just the
              us to do you favours,       way that we feel



CHORUS:

A5        F5
Get ready for some action
A5           F5         G5
Get ready -- Wildlife
A5         F5
Get ready, it's our reaction
A5           F5         G5
Get ready -- Wildlife



2ND VERSE:    (played same as 1st Verse)

Breaking loose, the only solution
We're getting well out of line
We don't follow, won't swallow
They're gonna find out we've got our own minds


Play CHORUS


GUITAR SOLO:

-for 1st 8 measures of solo, there's nothing that can be tabbed 
(refer to CD) so only the chord progression is here - the tab 
picks up the guitar solo half way through measure 8 - the 1st full
measure of tab is the 9th measure of the guitar solo


B5     G5          B5     G5  A5     (play progression 2x)


           B5                         G5
 E -------|--------------------------|------------------------|
 B -12-12-|-12~~---------------14-14-|-14~~-------------15-17-|
 G -------|--------------------------|------------------------|
 D -------|--------------------------|------------------------|
 A -------|--------------------------|------------------------|
 E -------|--------------------------|------------------------|


   B5                                 G5          A5
 E ------------17------17------------|------------------------|
 B -17^(19)-hb----(19)--r17-15h17-15-|-14~~-------------------|
 G ----------------------------------|------------------------|
 D ----------------------------------|------------------------|
 A ----------------------------------|------------------------|
 E ----------------------------------|------------------------|


   B5                            G5
 E -----------------------------|-----------------------------|
 B -----------------------------|-----------------------------|
 G -/7-7-7--7-7-7--7-7-7--6h7-7-|-/7-7-7--6h7-7--6h7-7--7=----|
 D -----------------------------|-----------------------------|
 A -----------------------------|-----------------------------|
 E -----------------------------|-----------------------------|
                                     (not exact^,hard to hear)

   B5                            G5             D5        (A5)
 E -----------------------------|-----------------------------|
 B -----------------------------|-----------------------------|
 G -6h7-7--6h7-6----------------|-----------------------------|
 D ---------------9p7-9---------|-------------------7------7--|
 A ----------------------9p7-5--|-7p5-7--5h7-5--7/9-----------|
 E -----------------------------|-----------------------------|



3RD VERSE:    (played same as 1st Verse)

They're talking down to our situation
Like it's a social disease
We won't follow, no tomorrow
We'll get them down on their knees


Play CHORUS


B5         G5
Get ready
B5           G5         A5
Get ready -- Wildlife
B5         G5
Get ready
B5           G5         A5
Get ready -- Wildlife

(repeat above 4 lines)


B5         G5
Get ready
B5           G5         A5
Get ready -- Wildlife
B5         G5
Get ready
B5
Get ready


G5    D5    A5

-----------------------------------------------------------------------------

^...bend                             /...slide up
r...release bend                     hb..hold bend     
h...hammer on                        ~...vibrato      
p...pull off                                   


(This file is the transcriber's own work and represents 
their interpretation of the song.)
Добавлено: 20.03.2012
Вам также может быть интересно:
Другие материалы по этой песне:
  • Аккорды и текст

Страница создана 20.03.2012
http://primanota.ru/girlschool/wildlife-chords.htm
Привет, Гость.
Предлагаем пройти революционный курс по гитаре.
Подарок от PrimaNota.Ru, забирай!