PrimaNota.ru - самый крупный в мире бесплатный архив песенных текстов, аккордов, табулатур и нот


Girls Names - I Could Die - таба, видео

Регистрация Запомнить меня
Войти через:  Facebook Google Twitter Vk Yandex Mail.ru

Girls Names - I Could Die - таба, видео

Печатать
Просмотров: 84
Авторы музыки: Cathal Cully
Авторы текста: Cathal Cully
I Could Die by Girls Names  (off of Dead to Me) 

I couldn't find the lyrics for this song anywhere, so I had to make educated 
guesses (probably not correct) for the lyrics. 

Chords: 

|-5---7---3---5---4-|
|-7---7---3---5---4-|
|-7---7---4---6---5-|
|-7---9---5---7---6-|
|-5---9---5---7---6-|
|-x---7---3---5---4-|
  D   B   G   A   G#


Intro: 


E-------------------------------------------------------|
B-------------------------------------------------------|
G-7-7-6-6-4--7-7-6-6-4-------4-4----4-------6-6----6----| (x3) 
D-------------------------5-5-----5------7-7------7-----|
A-------------------------------------------------------|
E-------------------------------------------------------|



Intro Chords:  D  B  G  A  (x2) (This part plays with the intro lead) 
        
               G    A  

               D  B  G  A  (x2) 



Verse: 

D                   B 
Sometimes it's crazy that 

G              A
I'm feeling dead 

D                  B
You think I'd cheat him 

    G               A
well i'll tell you why 

D                 B
But i can't tell you 

      G               A
cause my heart just isn't wide 

     D               B
can't feel the same cause 

   G                A 
I'm feeling like i could die 



Chorus: 

G       G#   A          G# 
Ahhhh  Ahhhh  Ahhhh   

G       G#   A          G# 
Ahhhh  Ahhhh  Ahhhh  



Bridge:  D  B  G  A  (x2) 



Verse: 

  D                 B 
Sometimes I wonder and

          G                A
sometimes I come crashing down 

   D                   B 
Is it so hard to understand 

   G                     A 
that I spin round and round 

D              B
But I can't tell 

         G                   A
cause my heart just isn't wide 

   D                   B
can't feel the same cause

         G             A 
I'm feeling like I could die 



Chorus: 

G       G#   A          G# 
Ahhhh  Ahhhh  Ahhhh   

G       G#   A          G# 
Ahhhh  Ahhhh  Ahhhh  



Outro Chords:  D  B  G  A  (x4)  (stay on A last time until ending on D) 



Outro Lead: 


E--------------------------------------------------------------------|
B-------7------------------------------------------------------------|
G-7-9----9-7--------7-9-7-------------4-4---4--6-6-4-4-2-2-0---------| (x2)
D----------------9--------------9---5-5-------5----------------------|
A--------------------------------------------------------------------|
E--------------------------------------------------------------------|


E------------------7-5----5----------------------------------------|
B-------7---------------7----7-5-----------------------------------|
G-7-9----9-7----------------------------4-4---4--6-6-4-4-2-2-0-----|
D----------------9-------------------5-5-------5-------------------|
A------------------------------------------------------------------|
E------------------------------------------------------------------|


E--------------------------------------------------------------------|
B-------7------------------------------------------------------------|
G-7-9----9-7--------7-9-7-------------4-4---4--6-6-4-4-2-2-0---------|
D----------------9--------------9---5-5-------5----------------------|
A--------------------------------------------------------------------|
E--------------------------------------------------------------------|


E-----------------------------|
B-----------------------------|
G--6-6-4-4-2-2-0--------------|  (x2) 
D-----------------------------|
A-----------------------------|
E-----------------------------|
Добавлено: 29.08.2013
Другие материалы по этой песне:
  • Аккорды и текст

Страница создана 29.08.2013
http://primanota.ru/girls-names/i-could-die-chords.htm
Привет, Гость.
Предлагаем пройти революционный курс по гитаре.
Подарок от PrimaNota.Ru, забирай!