PrimaNota.ru - самый крупный в мире бесплатный архив песенных текстов, аккордов, табулатур и нот


Girls In Hawaii - Bees And Butterflies - таба, бас-таба, видео

Регистрация Запомнить меня
Войти через:  Facebook Google Twitter Vk Yandex Mail.ru

Girls In Hawaii - Bees And Butterflies - таба, бас-таба, видео

Печатать
Просмотров: 143
Author/Artist: Girls in Hawaii
Title: Bees and Butterflies (down)
Album: From Here to There
Transcribed by: Jorge Gil
Email: jorgegil17@gmail.com

Note: A capo it's used in the 2nd fret.

Intro: (x2)

   Em          C            Am           A7sus2
-|-0---------------------------------------------3------|---------------------|
-|---------0---0h1------3---0h1------1---0--------------|---------------------|
-|-----0--------------------2----------------2-------2--|---------------------|
-|-2----------------2------------2---------------2------|---------------------|
-|-------------3-------------------------2--------------|---------------------|
-|-0---------------------------------------------3------|---------------------|

   Em          C            Am           A7sus2
-|-0---------------------------------------------3------|---------------------|
-|---------0---0h1------3---0h1------1---0-------0------|---------------------|
-|-----0--------------------2----------------2---0---2--|---------------------|
-|-2----------------2------------2---------------2------|---------------------|
-|-------------3-------------------------2--------------|---------------------|
-|-0---------------------------------------------3------|---------------------|

   Em          C            Am           A7sus2
-|-0----------------------------------------------------|---------------------|
-|---------0---0h1------3---0h1------1---0-------0------|---------------------|
-|-----0--------------------2----------------2---0---2--|---------------------|
-|-2----------------2------------2---------------2------|---------------------|
-|-------------3-------------------------2--------------|---------------------|
-|-0---------------------------------------------3------|---------------------|

   Em          C            Am           A7sus2
-|-0----------------------------------------------------|---------------------|
-|---------0---0h1------3---0h1------1---0-------0------|---------------------|
-|-----0--------------------2----------------2----------|---------------------|
-|-2----------------2------------2----------------------|---------------------|
-|-------------3-------------------------2--------------|---------------------|
-|-0----------------------------------------------------|---------------------|

   E7sus4      D6/E        Gadd9/E D6/E
-|-0-----------2-----------3-------2------|-----------------------------------|
-|-0-------0---0-------0---0-------0------|-----------------------------------|
-|-----2-----------2-----------2-------2--|-----------------------------------|
-|----------------------------------------|-----------------------------------|
-|-2-----------2-----------2-------2------|-----------------------------------|
-|----------------------------------------|-----------------------------------|

Verse:

   Em          C            Am           A7sus2
-|-0---------------------------------------------3------|---------------------|
-|---------0---0h1------3---0h1------1---0--------------|---------------------|
-|-----0--------------------2----------------2-------2--|---------------------|
-|-2----------------2------------2---------------2------|---------------------|
-|-------------3-------------------------2--------------|---------------------|
-|-0---------------------------------------------3------|---------------------|
									 x4
When I'm feeling so high
My hands start to reach very high
When I'm feeling so high
My hands start to reach very high

Bridge:

   C                                   Em
-|-------------------3-----------------3-----------------3------2------0-----|
-|-1----------1------1----------1------0----------0--------------------------|
-|--------0------0----------0------0----------0------0-----------------------|
-|-2---2-----------------2-----------------2-----------------2------2--------|
-|-3-------------------------------------------------------------------------|
-|---------------------------------------------------------------------------|

Sorry for it

   C						   G
-|-------------------0-------------------------------------------------------|
-|-1----------1------1----------1------3----------3------3----------3--------|
-|-0------0------0----------0------0-----------------4-----------------4-----|
-|-2---2-----------------2--------------------5-----------------5------------|
-|-3---------------------------------------5-----------------5---------------|
-|-------------------------------------3-----------------3-------------------|

Sorry for me

Chorus:

   Am                Em                Am                Em
-|------------0-----------------0-----------------0-----------------0--------|
-|-1----------1------0----------0------1----------1------0----------0--------|
-|--------2------2----------2------0----------2------2----------2------0-----|
-|-----2-----------------2-----------------2-----------------2---------------|
-|-0-----------------0-----------------0-----------------0-------------------|
-|---------------------------------------------------------------------------|

Cause bees and butterflies down in my hands

   Am                Em
-|---------------------------------------------------------------------------|
-|-1----------1------0---------0---0---------0---0---------0---0---------0---|
-|--------2------2-----------------------------------------------------------|
-|-----2--------------------4-------------4-------------4-------------4------|
-|-0---------------------6-------------6-------------6-------------6---------|
-|-------------------7-------------7-------------7-------------7-------------|

Now I have to teach them... How to fly


Solo: (G1 same as intro)

How to fly

Verse:

When I'm feeling the right
Put down together in round
When I'm feeling the right
Holing to touch the stars

Bridge:

Sorry for it
Sorry for me

Chorus:

Cause bees and butterflies down in my hands
Now I have to teach them
Now I have to teach them
How to fly
How to fly

Outro: (G1 same as intro)
Добавлено: 19.03.2012
Другие материалы по этой песне:

Страница создана 03.03.2012
http://primanota.ru/girls-in-hawaii/bees-and-butterflies-chords.htm
Привет, Гость.
Предлагаем пройти революционный курс по гитаре.
Подарок от PrimaNota.Ru, забирай!