PrimaNota.ru - самый крупный в мире бесплатный архив песенных текстов, аккордов, табулатур и нот


Girls Generation - Genie - таба, видео

Регистрация Запомнить меня
Войти через:  Facebook Google Twitter Vk Yandex Mail.ru

Girls Generation - Genie - таба, видео

Печатать
Просмотров: 243
Авторы текста: Kanata Nakamura
So Nyuh Shi Dae “Genie” Rock Cover
Drop D Tuning
Ok on standard if acoustic
//: repeats on second run through

Intro
|-------------------------------------------------------|
|-------------------------------------------------------|
|-------------------------------------------------------|
|--5---3-3-3-5---5-5-3-5---5-5-3-5----------------------|
|--5---3-3-3-5---5-5-3-5---5-5-3-5----------------------|
|--5---3-3-3-5---5-5-3-5---5-5-3-5----------------------|


  --5-5-5--5--5--5---5-4--4-4-4--4--4--4---4-5----------|
 .------------------------------------------------------|
  ------------------------------------------------------|
  ------------------------------------------------------|
 .------------------------------------------------------|
  ------------------------------------------------------|

|--5-5-5--5-5--5--4--5--7--0--4------------------------|
|----------------------7-------------------------------|
|------------------------------------------------------|
|------------------------------------------------------|
|------------------------------------------------------|
|------------------------------------------------------|

|--5-5-5--5--5--5---5-4--4-4-4--4--4--4---4-5----------|
|------------------------------------------------------|
|------------------------------------------------------|
|------------------------------------------------------|
|------------------------------------------------------|
|------------------------------------------------------|

|--5-5-5--5-5---2--5--7--9-----7-----------------------|
|---------------------------10-------------------------|
|------------------------------------------------------|
|------------------------------------------------------|
|------------------------------------------------------|
|------------------------------------------------------|

//
|--2--2--4---5---4---5---4--5--5--5---7-----5----------|
|------------------------------------7-----------------|
|------------------------------------------------------|
|------------------------------------------------------|
|------------------------------------------------------|
|------------------------------------------------------|



|--5--4--5--4--5--5-5---7-5------------------------------| 2x
|---------------------7----------------------------------|
|--------------------------------------------------------|
|--------------------------------------------------------|
|--------------------------------------------------------|
|--------------------------------------------------------|

|-----5---7---5---4--0-0-0--------5----------------------|
|----------------------------3-2-------------------------|
|--6-----------------------------------------------------|
|--------------------------------------------------------|
|--------------------------------------------------------|
|--------------------------------------------------------|

|--0-0-0--------5---------------------------------------|  3x //
|----------3-2------------------------------------------|
|-------------------------------------------------------|
|-------------------------------------------------------|
|-------------------------------------------------------|
|-------------------------------------------------------|

|-------------------------------------------------------|
|--------0------0-----0-----------------------0-------0-|
|------2----------6-----2-2-2-2-2-2-2-2-2-2------6------|
|--2-4-----4--7-----7-------------------------------7---|
|-------------------------------------------------------|
|-------------------------------------------------------|

|-------------------------------------------------------|
|-------------------------0--2--3--0--------------------|
|--2-2-2-2---2--2—2---2----------------2----------------|
|-------------------------------------------------------|
|-------------------------------------------------------|
|-------------------------------------------------------|

|--------------------------------------------------------|
|------------------------------0-------0------0------0---|
|--2-2-2--2---2--2—2----2---2----6-------6------6--------|
|-----------------------------------7------7-------7-----|
|--------------------------------------------------------|
|--------------------------------------------------------|



Kanon@att.net
Caleb Rodriguez
Hope its fun
dots are for the double bar repeat. actual song ends at //
Добавлено: 15.05.2012
Другие материалы по этой песне:
  • Аккорды и текст

Страница создана 15.05.2012
http://primanota.ru/girls-generation/genie-chords.htm
Привет, Гость.
Предлагаем пройти революционный курс по гитаре.
Подарок от PrimaNota.Ru, забирай!