PrimaNota.ru - самый крупный в мире бесплатный архив песенных текстов, аккордов, табулатур и нот


Girls Generation - Beautiful Restriction - таба, видео

Регистрация Запомнить меня
Войти через:  Facebook Google Twitter Vk Yandex Mail.ru

Girls Generation - Beautiful Restriction - таба, видео

Печатать
Просмотров: 123
Girl's Generation
Beautiful Restriction - Music Trip Lalala

Earl Palomata
locke204@live.com

I made tabs for the spots that I feel stands out in the background
but most of the song is just finger picked and easy enough to figure out.

Asus4   002230
Bsus7   023340
A7sus4  002030
Dmaj7   000222


INTRO:

e-------10-------10-------10-|
B-------------------------10-|
G-11h12----11h12----12p11-11-|
D----------------------------|
A----------------------------|
E----------------------------|

VERSE:

D to Asus4:
Oneur haru        haeng bokha gil...
e-------------0-------------------0-----3--2--|
B--------3------3----------------3---3----3---|
G------2---2-----2--------------2-------------|
D-----0------------------------0--------------|
A---------------------------------------------|
E---------------------------------------------|

G chord part of the verse:
e------3---------3-------|
B-----3---3-3---3---3----|
G-2/4------4-4h5-----5---|
D------------------------|
A------------------------|
E------------------------|

SOLO:

e----------------------------------|
B------7----------------10---------|
G---7/9-----7-9-7---7/9------7-9-7-|
D-7-------7-------7--------7-------|
A----------------------------------|
E----------------------------------|

e--------------------------------------8-8-7-|
B-----10-----10-----10-----10-----8----8-8-8-|
G-2/7----7-6----6----------------------7-7-7-|
D-----------------9----9-7----7/9------------|
A--------------------------------------------|
E--------------------------------------------|

e--X/x----x-/x----x--x--x-------x--X-x-x---|
B--8/10---10/12---15-15-14------10-7h8-7---|
G--X/x----x-/x----x--x--x-------x--7-7-7---|
D--5/7----7-/9----12-12-11------7--7-7-7---|
A--X/x----x-/x----x--x--x-------x------x---|
E--6/8----8-/10---13-13-12------8------8---|


INTRO:

D

VERSE 1:

         D               A7sus4
oneur haru haeng bokha gil
         D        Dmaj7         Bm7               G
eon jena achim e nun tteu myeon gido reur hage dwae
         Em   A                 D
dara nalkka du ryeo un haeng bogape

VERSE 2:

         D               A7sus4
neor man nan geon haeng un iya
         D        Dmaj7         Bm7               G
hyu ire hae ya haril deuri nae gedo saeng gyeosseo
         Em   A                 D - D7
yaksok hago man na go he eo jigo

BRIDGE 1:

G         A            D          F#m
jogeum ssig jibape seo neor deuryeo
         Am       B
bo naegi ga him gyeo wo ji neun
Em           A
nareur eotteokhae

CHORUS 1:
          G      A         F#m - Bm
cheo eumi ya nae ga deu di eo naega
       G       A              B - Bsus4
sarang e nan ppa jyeo beoryeosseo
          G      A
honja in ge joh a
        D               A  Bm
nareur sarang haet deon naege
Em           A           D
tto dareun nae ga on geoya

VERSE 3:

         D               A7sus4
areum da un gu sog in geol
         D        Dmaj7         Bm7               G
sarang eun eol mana sarameul byeon hage ha neun ji
         Em   A                 D
sara it neun oneur i areum dawo

SOLO:

D Asus4 D Asus4
D Dmaj7 Bm7 G Em
Asus4 A
Em A Asus4 D G A

BRDGE 2:

G         A            D          F#m
jogeum ssig jibape seo neor deuryeo
         Am       B
bo naegi ga him gyeo wo ji neun
Em           A
nareur eotteokhae

CHORUS 2:

          G      A         F#m - Bm
cheo eumi ya nae ga deu di eo naega
       G       A              B - Bsus4
sarang e nan ppa jyeo beoryeosseo
          G      A
honja in ge joh a
        D               A  Bm
nareur sarang haet deon naege
Em           A           D
tto dareun nae ga on geoya

CHORUS 3:

          G      A         F#m - Bm
cheo eumi ya nae ga deu di eo naega
       G       A              B - Bsus4
sarang e nan ppa jyeo beoryeosseo
          G      A
honja in ge joh a
        D               A  Bm
nareur sarang haet deon naege
Em           A           D
tto dareun nae ga on geoya
Em           A           D
nae apeni ga on geoya

***
Добавлено: 12.07.2012
Другие материалы по этой песне:
  • Аккорды и текст

Страница создана 12.07.2012
http://primanota.ru/girls-generation/beautiful-restriction-chords.htm
Привет, Гость.
Предлагаем пройти революционный курс по гитаре.
Подарок от PrimaNota.Ru, забирай!