PrimaNota.ru - самый крупный в мире бесплатный архив песенных текстов, аккордов, табулатур и нот


Girls Aloud - Something Kinda Ooh - таба, видео

Регистрация Запомнить меня
Войти через:  Facebook Google Twitter Vk Yandex Mail.ru

Girls Aloud - Something Kinda Ooh - таба, видео

Печатать
Просмотров: 149
Title: Something Kinda Ooh
Artist: Girls Aloud
Tuning: C# Ab C# F Ab C#
Note: Muting used throughout

Intro

I've got to heat it up…
---------------------------------------------------|
---------------------------------------------------|
---------------------------------------------------|
2---2---5---0-2---2---5---0-2---2---5---0-2-2-2-0--|
2---2---5---0-2---2---5---0-2---2---5---0-2-2-2-0--|
2---2---5---0-2---2---5---0-2---2---5---0-2-2-2-0--|

Repeat x 2 ( Fade with ‘2 2 2' on last repeat )

Chorus

Something kinda ooh…
----------------------------------------------|
7-7-7-7-7---2-2-2-2-2---5-5-5-5-5---0-0-0-0-0-|
7-7-7-7-7---2-2-2-2-2---5-5-5-5-5---0-0-0-0-0-|
7-7-7-7-7---2-2-2-2-2---5-5-5-5-5---0-0-0-0-0-|
7-7-7-7-7---2-2-2-2-2---5-5-5-5-5---0-0-0-0-0-|
7-7-7-7-7---2-2-2-2-2---5-5-5-5-5---0-0-0-0-0-|   Repeat x 4

Verse

Ooooh when tomorrow comes…
--------------------------------------------------------------------------|
--------------------------------------------------------------------------|
--------------------------------------------------------------------------|
2---2-----2---2---5---0-2---2-----2--2--5---0-2--2-----2---2---5---0-2--2-|
2---2-----2---2---5---0-2---2-----2--2--5---0-2--2-----2---2---5---0-2--2-|
2---2-----2---2---5---0-2---2-----2--2--5---0-2--2-----2---2---5---0-2--2-|

---------|
---------|
---------|
-5-5-5-5-|
-5-5-5-5-|
-5-5-5-5-|

Pre Chorus

If you're gonna put a line on me…..

----------------------------------------------------------------|
----------------------------------------------------------------|
----------------------------------------------------------------|
5---s-2-2-2-2---5---s-2-2-2-2---5---s-2-2-2-2---0h2-2-2-2-2-2---|
5---s-2-2-2-2---5---s-2-2-2-2---5---s-2-2-2-2---0h2-2-2-2-2-2---|
5---s-2-2 2-2---5---s-2-2-2-2---5---s-2-2-2-2---0h2-2-2-2-2-2---|

-----------------------------------------------------------------|
-----------------------------------------------------------------|
-----------------------------------------------------------------|
5---s-2-2-2-2---5---s-2-2-2-2---5---s-2-2-2-2---5-5-5-5--7-7-7-7-|
5---s-2-2-2-2---5---s-2-2-2-2---5---s-2-2-2-2---5-5-5-5--7-7-7-7-|
5---s-2-2 2-2---5---s-2-2-2-2---5---s-2-2-2-2---5-5-5-5--7-7-7-7-|

( Repeat / fade on '7-7-7' ending slightly )

Chorus

Something kinda ooh…
----------------------------------------------|
7-7-7-7-7---2-2-2-2-2---5-5-5-5-5---0-0-0-0-0-|
7-7-7-7-7---2-2-2-2-2---5-5-5-5-5---0-0-0-0-0-|
7-7-7-7-7---2-2-2-2-2---5-5-5-5-5---0-0-0-0-0-|
7-7-7-7-7---2-2-2-2-2---5-5-5-5-5---0-0-0-0-0-|
7-7-7-7-7---2-2-2-2-2---5-5-5-5-5---0-0-0-0-0-|   ( x 4 )

Bridge

I've got to heat it up…

-------------|
-------------|
--2--2--2--2-|
-------------|
2--2--2—-2---|    ( x 8 )


Oh boy….

----------------|
----------------|
----------------|
--2---2---2---2-|
2---2---2---2---|
2---2---2---2---| ( x 8 )

Pre Chorus

Should have know where the man was at…..

----------------------------------------------------------------|
----------------------------------------------------------------|
----------------------------------------------------------------|
5---s-2-2-2-2---5---s-2-2-2-2---5---s-2-2-2-2---0h2-2-2-2-2-2---|
5---s-2-2-2-2---5---s-2-2-2-2---5---s-2-2-2-2---0h2-2-2-2-2-2---|
5---s-2-2 2-2---5---s-2-2-2-2---5---s-2-2-2-2---0h2-2-2-2-2-2---|

-----------------------------------------------------------------|
-----------------------------------------------------------------|
-----------------------------------------------------------------|
5---s-2-2-2-2---5---s-2-2-2-2---5---s-2-2-2-2---5-5-5-5--7-7-7-7-|
5---s-2-2-2-2---5---s-2-2-2-2---5---s-2-2-2-2---5-5-5-5--7-7-7-7-|
5---s-2-2 2-2---5---s-2-2-2-2---5---s-2-2-2-2---5-5-5-5--7-7-7-7-|

( Repeat / fade on '7-7-7' ending slightly )

Chorus

Something kinda ooh…
----------------------------------------------|
7-7-7-7-7---2-2-2-2-2---5-5-5-5-5---0-0-0-0-0-|
7-7-7-7-7---2-2-2-2-2---5-5-5-5-5---0-0-0-0-0-|
7-7-7-7-7---2-2-2-2-2---5-5-5-5-5---0-0-0-0-0-|
7-7-7-7-7---2-2-2-2-2---5-5-5-5-5---0-0-0-0-0-|
7-7-7-7-7---2-2-2-2-2---5-5-5-5-5---0-0-0-0-0-|   Repeat x 4

END
Добавлено: 08.07.2012
Другие материалы по этой песне:
  • Аккорды и текст

Страница создана 08.07.2012
http://primanota.ru/girls-aloud/something-kinda-ooh-chords.htm
Привет, Гость.
Предлагаем пройти революционный курс по гитаре.
Подарок от PrimaNota.Ru, забирай!