PrimaNota.ru - самый крупный в мире бесплатный архив песенных текстов, аккордов, табулатур и нот


Girlpool - Slutmouth - таба, видео

Регистрация Запомнить меня
Войти через:  Facebook Google Twitter Vk Yandex Mail.ru

Girlpool - Slutmouth - таба, видео

Печатать
Просмотров: 98
Уроки эстрадного вокала в Санкт-Петербурге
-------------------------------------------------------------------------------
                             SLUTMOUTH - Girlpool
-------------------------------------------------------------------------------
Tabbed by: Jessica Patrick-Hooper
Can't figure out the guitar part, but this is how to play the bass part on guitar. It's super easy!

Capo on 4

(verse and pre-chorus)
e|---------------------------------------------------------------------------|
B|---------------------------------------------------------------------------|
G|---------------------------------------------------------------------------|
D|---------------------------------------------------------------------------|
A|-------------------------3-3-0-0-------------------------------------------|
E|-1-1-1-1-1-1-1-1-3-3-3-3---------------------------------------------------|

(Chorus)
e|---------------------------------------------------------------------------|
B|---------------------------------------------------------------------------|
G|---------------------------------------------------------------------------|
D|---------------------------------------------------------------------------|
A|-------------0-0---------------------------------------------------------|
E|-1-1-1-1-3-3---------------------------------------------------------|



That's basically it, but i think at some point in the song, you will need to strum the E string with
your finger on the first fret fewer than 8 times. Just listen to the song and work from there, it's not
hard to figure out at all. 


************************************

| /   slide up
| \   slide down
| h   hammer-on
| p   pull-off
| ~   vibrato
| +   harmonic
| x   Mute note
| b   Bend
| pb  Pre-bend
| br  Bend release
| pbr Pre-bend release
| brb Bend release bend

************************************
Добавлено: 01.04.2016
Вам также может быть интересно:
Другие материалы по этой песне:
  • Аккорды и текст

Страница создана 01.04.2016
http://primanota.ru/girlpool/slutmouth-chords.htm
Привет, Гость.
Предлагаем пройти революционный курс по гитаре.
Подарок от PrimaNota.Ru, забирай!