PrimaNota.ru - самый крупный в мире бесплатный архив песенных текстов, аккордов, табулатур и нот


Girlpool - Blah Blah Blah - таба, бас-таба, видео

Регистрация Запомнить меня
Войти через:  Facebook Google Twitter Vk Yandex Mail.ru

Girlpool - Blah Blah Blah - таба, бас-таба, видео

Печатать
Просмотров: 124
Уроки эстрадного вокала в Санкт-Петербурге
-------------------------------------------------------------------------------
                             Blah Blah Blah - Girlpool
-------------------------------------------------------------------------------

Tuning: Standard

Intro:

e|---------------------------------------------------------------------------|
B|---------------------------------------------------------------------------|
G|---7/9-----7/9-------------------------------------------------------------|
D|---------------------------------------------------------------------------|
A|---5/7-----7/9-------------------------------------------------------------|
E|---------------------------------------------------------------------------|

Main Riff:

e|---------------------------------------------------------------------------|
B|---------------------------------------------------------------------------|
G|---------------------------------------------------------------------------|
D|------9--7\5-----7--5--7---------------------------------------------------|
A|---7----------5------------------------------------------------------------|
E|---------------------------------------------------------------------------|

Chorus:

A C# D A


************************************

| /   slide up
| \   slide down
| h   hammer-on
| p   pull-off
| ~   vibrato
| +   harmonic
| x   Mute note
| b   Bend
| pb  Pre-bend
| br  Bend release
| pbr Pre-bend release
| brb Bend release bend

************************************
Добавлено: 05.10.2014
Другие материалы по этой песне:
  • Аккорды и текст

Страница создана 05.10.2014
http://primanota.ru/girlpool/blah-blah-blah-chords.htm
Привет, Гость.
Предлагаем пройти революционный курс по гитаре.
Подарок от PrimaNota.Ru, забирай!