PrimaNota.ru - самый крупный в мире бесплатный архив песенных текстов, аккордов, табулатур и нот


Girlpool - Before The World Was Big - таба, видео

Регистрация Запомнить меня
Войти через:  Facebook Google Twitter Vk Yandex Mail.ru

Girlpool - Before The World Was Big - таба, видео

Печатать
Просмотров: 122
Уроки эстрадного вокала в Санкт-Петербурге
-------------------------------------------------------------------------------
                     Before The World Was Big - Girlpool
-------------------------------------------------------------------------------
Tabbed by: oddysee3030
E-mail: oddysee3030@gmail.com

Tuning: Standard

Reference material for this tab is two videos:
1)https://www.youtube.com/watch?v=ww6ocoCU8mk
2)https://www.youtube.com/watch?v=VNM8Tg9pvDU
And also the album version of the song, obviously.

This song is pretty straightforward, and the guitar part is slightly less
complicated than in this tab because I added in some of the notes that would
usually be played by the accompanying base, because I'm playing by myself but
you'll know where they are when you start playing it and can then take 'em
or leave 'em. It just makes the song sound better when playing solo.

I tried to match the lyrics up with the notes as best I could, but i wouldn't rely on them.



                                 Main Riff
e|----------------------------------------------------------------x---|
B|---------------------------------------------------------------+7---|
G|--------------------------------7------------------------------+7---|x1
D|-0---------5---4---0--------5-------0-------5---4---0-------5--+7---|
A|-----5h7---------------5h7-------------5h7-------------5h7------x---|
E|----------------------------------------------------------------x---|
(You can play the high e string with the harmonic if you want, she does sometimes) 


 "7:45 in the mornin', I'm leavin' my house, tryin' not to think of all the ways this place has changed"
e|---------------------------------------------------------------------------|
B|---------------------------------------------------------------------------|
G|---------------------------------------------------------------------------|x1
D|---------5---4-------------------------------------5---4----------7--5--4--|
A|-5---7-----------5---7----------------------5---7----------5---7-----------|
E|---------------------------------------------------------------------------|

                                 Main Riff
e|----------------------------------------------------------------x---|
B|---------------------------------------------------------------+7---|
G|--------------------------------7------------------------------+7---|x1
D|-0---------5---4---0--------5-------0-------5---4---0-------5--+7---|
A|-----5h7---------------5h7-------------5h7-------------5h7------x---|
E|----------------------------------------------------------------x---|


   "Walked around my neighborhood, on hundred one million billion trillion times"
e|---------------------------------------------------------------------------|
B|---------------------------------------------------------------------------|
G|---------------------------------------------------------------------------|x1
D|---------5---4-------------------------------------5---4----------7--5--4--|
A|-5---7-----------5---7----------------------5---7----------5---7-----------|
E|---------------------------------------------------------------------------|


       "Every crack in the sidewalk, below my feet"
    "Green black and blue trashcans, meet me afterschool..."
e|-------------------------------------------------------------------|
B|-------------------------------------------------------------------|
G|-------------------------------------------------------------------|x1
D|---------5---4----------7--5--4-----------5---4----------7--5--4---|
A|-5---7-----------5---7------------5---7----------5---7-------------|
E|-------------------------------------------------------------------|
(Hold the last note of this part for a couple beats before starting next section)


                                 Chorus
                  "I just miss how it felt standing next to you, wearing mat-
e|---------------------------------------------------------------------------|
B|---------------------------------------------------------------------------|
G|---------------------------------------------------------------------------|
D|-4-------------------4---2---0---------------4---2---0---0-----------4---7-|
A|-----5-----------5---------------2-------5-----------------------5---------|
E|---------5---3-----------------------3-----------------------3-------------|


  ching dresses before the world was big, I just miss how it felt standing next to
e|---------------------------------------------------------------------------|
B|---------------------------------------------------------------------------|
G|---------------------------------------------------------------------------|
D|--5---4---5--5--5--5---4---2---0-------4---2---0---------------4---2---0---|
A|-----------------------------------5---------------2-------5---------------|
E|-------------------------------------------------------3-------------------|


   you, wearing matching dresses before the world was big"
e|------------------------------------------------------|
B|------------------------------------------------------|
G|------------------------------------------------------|x1
D|-0-----------4---7---5---4---5--5--5--5---4---2---0---|
A|---------5--------------------------------------------|
E|-----3------------------------------------------------|


                                 Main Riff
e|-------------------------------------------------------------x---|
B|------------------------------------------------------------+7---|
G|-----------------------------7------------------------------+7---|x1
D|--------5---4---0--------5-------0-------5---4---0-------5--+7---|
A|--5h7---------------5h7-------------5h7-------------5h7------x---|
E|-------------------------------------------------------------x---|


    "My brain's like a rolling snowball, I'm a firetruck"
   "Tryin' not to think of all the ways my mind has changed"
e|-------------------------------------------------------------------|
B|-------------------------------------------------------------------|
G|-------------------------------------------------------------------|
D|---------5---4----------7--5--4-----------5---4----------7--5--4---|
A|-5---7-----------5---7------------5---7----------5---7-------------|
E|-------------------------------------------------------------------|


                                     "Mom and Dad I love you, do I show it enough..."
e|-------------------------------------------------------------------|
B|-------------------------------------------------------------------|
G|-------------------------------------------------------------------|
D|---------5---4----------7--5--4-----------5---4----------7--5--4---|
A|-5---7-----------5---7------------5---7----------5---7-------------|
E|-------------------------------------------------------------------|
(Hold the last note of this part for a couple beats before starting next section)


                                   Chorus
                  "I just miss how it felt standing next to you, wearing mat-
e|---------------------------------------------------------------------------|
B|---------------------------------------------------------------------------|
G|---------------------------------------------------------------------------|
D|-4-------------------4---2---0---------------4---2---0---0-----------4---7-|
A|-----5-----------5---------------2-------5-----------------------5---------|
E|---------5---3-----------------------3-----------------------3-------------|


  ching dresses before the world was big"
e|-----------------------------------|
B|-----------------------------------|
G|-----------------------------------|x1
D|--5---4---5--5--5--5---4---2---0---|
A|-----------------------------------|
E|-----------------------------------|


                            Chorus(Overlapping)[x1]
(Things get a little crazy here, this is when they start overlapping the chorus' lyrics.)
e|---------------------------------------------------------------------------|
B|---------------------------------------------------------------------------|
G|---------------------------------------------------------------------------|
D|-----4---2---0---------------4---2---0---------------4---2---0---0---------|
A|-5---------------2-------5---------------2-------5-----------------------5-|
E|---------------------3-----------------------3-----------------------3-----|


e|---------------------------------------------------------------------------|
B|---------------------------------------------------------------------------|
G|---------------------------------------------------------------------------|
D|--4---7---5---4---5--5--5--5---4---2---0-------4---2---0---------------4---|
A|-------------------------------------------5---------------2-------5-------|
E|---------------------------------------------------------------3-----------|


e|--------------------------------------------------------------------------|
B|--------------------------------------------------------------------------|
G|--------------------------------------------------------------------------|
D|-2---0---0-----------4---7---5---4---5--5--5--5---4---2---0-------4---2---|
A|-----------------5--------------------------------------------5-----------|
E|-------------3------------------------------------------------------------|


e|-------------------------------------------------------------||
B|-------------------------------------------------------------||
G|-------------------------------------------------------------||x1
D|-0---------------4---2---0---0-----------4---7---5---4-------||
A|-----2-------5-----------------------5-----------------------||
E|---------3-----------------------3-----------------------3---||
(The lyrics meet back up on the word "big" for the final note.)



Hope this works for ya, I love playing this song and thought it would be nice to share it.
Let me know if you think I missed anything, and keep in mind that things sound slightly different
without the accompanying bassline. 
Still, leave a comment with any... uh... comments... you might have.



************************************

| /   slide up
| \   slide down
| h   hammer-on
| p   pull-off
| ~   vibrato
| +   harmonic
| x   Mute note
| b   Bend
| pb  Pre-bend
| br  Bend release
| pbr Pre-bend release
| brb Bend release bend

************************************
Добавлено: 31.03.2016
Другие материалы по этой песне:
  • Аккорды и текст

Страница создана 31.03.2016
http://primanota.ru/girlpool/before-world-was-big-chords.htm
Привет, Гость.
Предлагаем пройти революционный курс по гитаре.
Подарок от PrimaNota.Ru, забирай!