PrimaNota.ru - самый крупный в мире бесплатный архив песенных текстов, аккордов, табулатур и нот


Girlfriends - Yeah Whats It Tuba - таба, видео

Регистрация Запомнить меня
Войти через:  Facebook Google Twitter Vk Yandex Mail.ru

Girlfriends - Yeah Whats It Tuba - таба, видео

Печатать
Просмотров: 51
(/) Slide Up  (\) Slide Down  (h) Hammer On  (p) Pull Off  (b) Bend (r) Release (v) Vibrato

A song from the album "Girlfriends" by Girlfriends. Download for free at http://girlfriends.bandcamp.com
I tabbed this out cause i was messing around wit ha loop pedal and thought this would be fun to do.
This is my first attempt so feel free to leave comments and corrections and ill edit them in. Thanks, Enjoy!

Basically just loop each part. 

0:00

E|---10-8---10-8------
B|---------------10-8-
G|--------------------
D|-8------8-----------
A|--------------------
E|--------------------

0:05

E|-13----12----8----------12b13r12---
B|------------------10---------------
G|-----------------------------------
D|-----------------------------------
A|-----------------------------------
E|-----------------------------------

0:13

E|-------------------
B|-------------------
G|---10-9-----9------
D|-8------8-7---10-8-
A|-------------------
E|-------------------

0:21

E|----------------------
B|----------------------
G|---10-9--------9------
D|-8------8-7h10---10-8-
A|----------------------
E|----------------------


0:30

E|-----------------------------------------------------------------------------------------
B|-----------------------------------------------------------------------------------------
G|-----------------------------------------------------------------------------------------
D|------------------------------------------------------------------------------------8-10-
A|---------------------------------------------5----5----5----5-5----8----8----8-8---------
E|-6----6----6----6-6----6----6----6----6-6------------------------------------------------

0:39

E|------12-8-------------12-8-
B|-10--------------10---------
G|----------------------------
D|----------------------------
A|----------------------------
E|----------------------------
                                                        http://www.guitartabcreator.com
Добавлено: 22.06.2016
Другие материалы по этой песне:
  • Аккорды и текст

Страница создана 22.06.2016
http://primanota.ru/girlfriends/yeah-whats-it-tuba-chords.htm
Привет, Гость.
Предлагаем пройти революционный курс по гитаре.
Подарок от PrimaNota.Ru, забирай!