PrimaNota.ru - самый крупный в мире бесплатный архив песенных текстов, аккордов, табулатур и нот


Girl On Fire - Losing My Identity - таба, видео

Регистрация Запомнить меня
Войти через:  Facebook Google Twitter Vk Yandex Mail.ru

Girl On Fire - Losing My Identity - таба, видео

Печатать
Просмотров: 88
-------------------------------------------------------------------------------
                     Losing My Identity - Girl On Fire
-------------------------------------------------------------------------------
Tabbed by: LuSchutz

my first try of a tab.. if you find a mistake, let me know ;)

Tuning: Standard

e|---0-4-0---0---0-|---0-4-0---0------||
B|-2-------4---4---|-2-------4---2~---||
G|-----------------|-----------------o|| repeat
D|-----------------|-----------------o||
A|-----------------|------------------||
E|-----------------|------------------||

or, if you want to play it on an e-Guitar, this might sound good as well:

e|----12-16-12----12----12-|----12-16-12----12-------||
B|-14----------16----16----|-14----------16----14~---||
G|-------------------------|------------------------o||
D|-------------------------|------------------------o||
A|-------------------------|-------------------------||
E|-------------------------|-------------------------||

****
~ : hold (1/4th. everything else are 1/8ths)
****

Have fun and rock on ;)
Добавлено: 31.12.2015
Другие материалы по этой песне:
  • Аккорды и текст

Страница создана 31.12.2015
http://primanota.ru/girl-on-fire/losing-my-identity-chords.htm
Привет, Гость.
Предлагаем пройти революционный курс по гитаре.
Подарок от PrimaNota.Ru, забирай!