PrimaNota.ru - самый крупный в мире бесплатный архив песенных текстов, аккордов, табулатур и нот


Girl In A Coma - Clumsy Sky - таба, видео

Регистрация Запомнить меня
Войти через:  Facebook Google Twitter Vk Yandex Mail.ru

Girl In A Coma - Clumsy Sky - таба, видео

Печатать
Просмотров: 101
Уроки эстрадного вокала в Санкт-Петербурге
Girl In A Coma
"Clumsy Sky"

--------------------------------------------------------------------|
--------------------------------------------------------------------|
-----6---------6---------6---------6--------------------------------|
--3---3-----3---3-----3---3-----3---3-------4---------4---------4---|
-4-4---4---4-4---4---4-4---4---4-4---4---3---3-----3---3-----3---3--|
----------------------------------------4-4---4---4-4---4---4-4---4-|


-------------------------------------------------------------------|
-------------------------------------------------------------------|
-------------------------------------------------------------------|
-----4---------4---------4---------4---------4---------------------|
--3---3-----1---1-----1---1-----1---1-----1---1--------------------|
-4-4---4---2-2---2---2-2---2---2-2---2---2-2---2-------------------|

--------------------------------------------------------------------|
--------------------------------------------------------------------|
-----6---------6---------6---------6--------------------------------|
--3---3-----3---3-----3---3-----3---3-------4---------4---------4---|
-4-4---4---4-4---4---4-4---4---4-4---4---3---3-----3---3-----3---3--|
----------------------------------------4-4---4---4-4---4---4-4---4-|


---------------------------------------------------------------------|
---------------------------------------------------------------------|
---------------------------------------------------------------------|
-----4---------4---------4---------4---------4---------4---------4---|
--3---3-----1---1-----1---1-----1---1-----1---1-----1---1-----1---1--|
-4-4---4---2-2---2---2-2---2---2-2---2---2-2---2---2-2---2---2-2---2-|

-------2-------2---------|
---6---2---6---2---------|
---6---3---6---3---------|
---6---4---6---4---------|
---4---4---4---4---------|
-------2-------2---------|


-------------------------|
-------------------------|
---9---6---5---8---------|
---9---6---6---9---------|
---7---4---6---9---------|
-----------4---7---------|


-------------------------|
-------------------------|
---6/--9---6-------------|
---6/--9---6---6---------|
---4---7---4---6---------|
---------------4---------|


-------2-------2---------|
---6---2---6---2---------|
---6---3---6---3---4-----|
---6---4---6---4---4--6--|
---4---4---4---4---2--6--|
-------2-------2------4--|


-------2---------------2-----|
---6---2-----------6---2-----|
---6---3---4-------6---3---2-|
---6---4---4---6---6---4---3-|
---4---4---2---6---4---4---3-|
-------2-------4-------2-----|
Добавлено: 23.05.2012
Другие материалы по этой песне:
  • Аккорды и текст

Страница создана 23.05.2012
http://primanota.ru/girl-in-a-coma/clumsy-sky-chords.htm
Привет, Гость.
Предлагаем пройти революционный курс по гитаре.
Подарок от PrimaNota.Ru, забирай!