PrimaNota.ru - самый крупный в мире бесплатный архив песенных текстов, аккордов, табулатур и нот


Giraffes Giraffes - A Quick One While Shes Away - таба, видео

Регистрация Запомнить меня
Войти через:  Facebook Google Twitter Vk Yandex Mail.ru

Giraffes Giraffes - A Quick One While Shes Away - таба, видео

Печатать
Просмотров: 83
Авторы музыки: Kenneth Topham, Joseph Andreoli

This is my best shot at tabbing this.
Any input/corrections would be great, just comment.
This is in open D (DADF#Ad).
Listen to the song for timing.

d |------------------------|------0------0----------|
A |----0-2-0--0-2-0-0h2p0--|----2--0---2--0--0h2p0--|
F#|---0------0-------------|---0------0-------------|
D |--0---------------------|--0---------------------|
A |------------------------|------------------------|
D |------------------------|------------------------|

d |---------------------------------------|
A |---------------------------------------|
F#|-----------------------------------0---|
D |--------0h5\4-------0h2/4-------0h2-0--|
A |--0h4/5-------0h2/4-------0h2/4--------|
D |---------------------------------------|

d |--------------------------[5]--|---------7--------7-------|
A |-------------------------------|--------------------------|
F#|--8--7--5--8-7--5--8-7--5------|--8--7--5--8--7--5--8--7--|
D |-------------------------------|--------------------------|
A |-------------------------------|--------------------------|
D |-------------------------------|--------------------------|

This goes until the crazy noises. Sometimes the
first bar is being played, sometimes the second.
Just listen to the song for the pattern.
d |---------------|---------------|
A |-----0------0--|---------------|
F#|----0--0--0----|-----12-----12-|
D |--0-----0------|----9--9--9----|
A |---------------|--12----12-----|
D |---------------|---------------|

The spaces between notes here isn't accurate; this is purely
just to give the notes. You'll have to listen to the song
for the actual timing and the way he plays the notes.
d |--------------------------------------------------------------------|
A |--------------------12-\10-\9--7/9--10\9----------------------------|
F#|--5/7-/8--8/10-/12------------------------10\8\5\3--3/8--8/10/(12)--|
D |--------------------------------------------------------------------|
A |--------------------------------------------------------------------|
D |--------------------------------------------------------------------|

d |--12--17-16--17-19--17-16--12\9--7/9/12-17/19\16--17-16-12\--2/7--2/12--|
A |------------------------------------------------------------------------|
F#|------------------------------------------------------------------------|
D |------------------------------------------------------------------------|
A |------------------------------------------------------------------------|
D |------------------------------------------------------------------------|

And this leads into the second chunk of the song, which I haven't tried
to figure out yet.
Hope you all enjoy.
Добавлено: 30.11.2013
Другие материалы по этой песне:

Страница создана 30.11.2013
http://primanota.ru/giraffes-giraffes/a-quick-one-while-shes-away-chords.htm
Привет, Гость.
Предлагаем пройти революционный курс по гитаре.
Подарок от PrimaNota.Ru, забирай!