PrimaNota.ru - самый крупный в мире бесплатный архив песенных текстов, аккордов, табулатур и нот


Gipsy Kings - Passion - таба, видео

Регистрация Запомнить меня
Войти через:  Facebook Google Twitter Vk Yandex Mail.ru

Gipsy Kings - Passion - таба, видео

Печатать
Просмотров: 570
-----------------------------------------------------------------------------
                             Passion - The Gipsy Kings
-----------------------------------------------------------------------------
Tabbed by: Travis Wong
Email: travis_wong@hotmail.com

Tuning: Eb Ab Db Gb Bb eb

Intro 1:
|----------------------|---------------------|--------2-------------|
|----------------------|---------------------|------2---------------|
|--------2----------1--|-------2----------1--|----2--------------1--|
|------0----------2----|------0----------2---|--0--------------2----|
|----4----------4------|----4----------4-----|---------------4------|
|--2----------0--------|--2----------0-------|-------------0--------|

|-------------------|----------------5-|
|--------2--------3-|-------2------2---|
|------4--------4---|-----4------4-----|
|----2--------2-----|---2--------------|
|--0--------0-------|-0--------0-------|
|-------------------|------------------|


Intro 2:
|-------------------------------|-------------------------------|
|-------------------------------|-------------------------------|
|----2------2-------1------1----|----2------2-------1------1----|
|---0-0-0--0-0-0---2-2-2--2-2-2-|---0-0-0--0-0-0---2-2-2--2-2-2-|
|--4---4--4---4---4---4--4---4--|--4---4--4---4---4---4--4---4--|
|-2------2-------0------0-------|-2------2-------0------0-------|

|----2------2-------------------|-------------------------5---| 
|---2-2-2--2-2-2----------------|----2------3------2-----2----|
|--2---2--2---2-----1------1----|---4-4-4--4-4-4--4-4-4-4-----|
|-0------0---------2-2-2--2-2-2-|--2---2--2---2--2---2--------|
|-----------------4---4--4---4--|-0------0------0------0------|
|----------------0------0-------|-----------------------------|


Verse:

F#m   / / /
C#m   / / /
E     / / /
B     / / /
F#m   / / /
C#m   / / /
F#m   / / /
E     / / /
Dmaj7 / / /


repeat intro
repeat verse


End:
F#m   / / /
E     / / /
Dmaj7 / / /

|------------------------------2--|
|----------------------------2----|
|--------2----------1------2------|
|------0----------2------0--------|
|----4----------4-----------------|
|--2----------0-------------------|


| /  slide up
| \  slide down
| h  hammer-on
| p  pull-off
| ~  vibrato
| +  harmonic
| x  Mute note
=============================================================================
Добавлено: 16.05.2012
Другие материалы по этой песне:

Страница создана 16.05.2012
http://primanota.ru/gipsy-kings/passion-chords.htm
Привет, Гость.
Предлагаем пройти революционный курс по гитаре.
Подарок от PrimaNota.Ru, забирай!