PrimaNota.ru - самый крупный в мире бесплатный архив песенных текстов, аккордов, табулатур и нот


Gipsy Kings - Gitano soy - таба, видео

Регистрация Запомнить меня
Войти через:  Facebook Google Twitter Vk Yandex Mail.ru

Gipsy Kings - Gitano soy - таба, видео

Печатать
Просмотров: 295
Уроки эстрадного вокала в Санкт-Петербурге


Cancion: Gitano Soy
Autor: Gipsy Kings
Album: Cantos de amor
Aсo: 1998
Transcripcion: Gabriel Di Bella - dibellagabriel@hotmail.com


Intro: Mientras de fondo va: F#m - C#m - Bm - F#m } x2


   e ------------------------7-------------------
   B ----10-10p9-10---7-9-10---10-9-7-9-9-7-9----
   G --------------------------------------------
   D -11-----------------------------------------
   A --------------------------------------------
   E --------------------------------------------
x2
   e --------------------------------------------
   B ---7-9-10-9-7---9-9---9---9-9-7-5-5h7-5-7---
   G -9------------9-----9-----------------------
   D --------------------------------------------
   A --------------------------------------------
   E --------------------------------------------


           A
Tu no me llore
No me da pena
       Bm
No llora nada por mi
      C#m
Del amor que va acabando
        F#m
Es el amor igual

D ----------
A ---0-4-0--
E -0-------2


           A
Tu no me llore
                    Bm
De se acabando el amor

Pienso a ti
    C#m
Ya nunca no volvera
     F#m
El amor verdad


D ---------
A ---------
E -0-2-5-2-


 F#m         Bm
Soy, gitano soy
        C#m
Gitano soy
           F#m
Siempre sere



 F#m         Bm
Soy, gitano soy
        C#m
Gitano soy
           F#m
Siempre sere


Intro: Mientras de fondo va: F#m - C#m - Bm - F#m } x2


   e ------------------------7-------------------
   B ----10-10p9-10---7-9-10---10-9-7-9-9-7-9----
   G --------------------------------------------
   D -11-----------------------------------------
   A --------------------------------------------
   E --------------------------------------------
x2
   e --------------------------------------------
   B ---7-9-10-9-7---9-9---9---9-9-7-5-5h7-5-7---
   G -9------------9-----9-----------------------
   D --------------------------------------------
   A --------------------------------------------
   E --------------------------------------------


           A
Estoy acercando
Pero te encuentro
       Bm
En la cama
       C#m
Y el amor te va acabando
       F#m
No llora por mi

D ---------
A ---------
E -4p5-9-2-


          A
Estoy pensando
No llore nina
     Bm
El amor de verdad
         C#m
Por el amor que no tenemos
       F#m
Que sera por mi

 F#m         Bm
Soy, gitano soy
        C#m
Gitano soy
           F#m
Siempre sere

 F#m         Bm
Soy, gitano soy
        C#m
Gitano soy
           F#m
Siempre sere


Intro: Mientras de fondo va: F#m - C#m - Bm - F#m } x2


   e ------------------------7-------------------
   B ----10-10p9-10---7-9-10---10-9-7-9-9-7-9----
   G --------------------------------------------
   D -11-----------------------------------------
   A --------------------------------------------
   E --------------------------------------------
x4
   e --------------------------------------------
   B ---7-9-10-9-7---9-9---9---9-9-7-5-5h7-5-7---
   G -9------------9-----9-----------------------
   D --------------------------------------------
   A --------------------------------------------
   E --------------------------------------------

Fade Out


---------------------

Hola, espero que les guste esta cancion de los Gipsy, que apenas
pude conseguir la letra.
Cuando se repite la intro en el medio y en el final, hace unarreglo
con otra guitarra, pero no le tuve la paciencia par sacarlos.
Si la sacan, mandenlo please. dibellagabriel@hotmail.com
08-07-07

Добавлено: 19.09.2013
Другие материалы по этой песне:
  • Аккорды и текст

Страница создана 19.09.2013
http://primanota.ru/gipsy-kings/gitano-soy-chords.htm
Привет, Гость.
Предлагаем пройти революционный курс по гитаре.
Подарок от PrimaNota.Ru, забирай!