PrimaNota.ru - самый крупный в мире бесплатный архив песенных текстов, аккордов, табулатур и нот


Gipsy Kings - A Tu Vera - аккорды и текст, таба, видео

Регистрация Запомнить меня
Войти через:  Facebook Google Twitter Vk Yandex Mail.ru

Gipsy Kings - A Tu Vera - аккорды и текст, таба, видео

Печатать
Просмотров: 261
A Tu Vera
Gipsy Kings
Intro:
 
--x--10-10--x-------x--9--9--x------x--8--8--x----x--7--7----------|
--x--8---8---x-------x--8--8--x------x--8--8--x----x--8--8---------|
--x--9---9---x-------x--9--9--x------x--9--9--x----x--9--9---------|
-----9---9---------------9--9-------------9--9-----------9--9------|
7-------------------7-----------------7---------------7------------|
-------------------------------------------------------------------|

(repeat)

----x---7---7---x-------x---7---7---x-|
----x---7---7---x-------x---7---7---x-|
----x---8---8---x-------x---8---8---x-|
----x---9---9---x-------x---9---9---x-|
----x---9---9---x-------x---9---9---x-|
7---x---7---7---x---7--x---7---7---x--|

(repeat)

Em
A tu vera.

                   D
Siempre a la verita tuya, a tu vera.

                          C
Siempre la verita tuya.

                    B7
Ay que me muero de pena.


Em
A tu vera.

                   D
Siempre a la verita tuya, a tu vera.

                        C
Siempre la verita tuya.

				B7		     Em
A? que yo me muero de pena a li a? li a? a li a?

Em			    D
A li a? li a? a li a? li a? a li a? li a? a li a? li a?

C			    B7
A li a? li a? a li a? li a? a li a? li a? a li a? li a?

--------------------------------------------------------------------------------

CBoRDS:
Добавлено: 31.12.2013
Другие материалы по этой песне:
  • Аккорды и текст

Страница создана 12.03.2012
http://primanota.ru/gipsy-kings/a-tu-vera-chords.htm
Привет, Гость.
Предлагаем пройти революционный курс по гитаре.
Подарок от PrimaNota.Ru, забирай!