PrimaNota.ru - самый крупный в мире бесплатный архив песенных текстов, аккордов, табулатур и нот


Giorgio Moroder - Racer - таба, видео

Регистрация Запомнить меня
Войти через:  Facebook Google Twitter Vk Yandex Mail.ru

Giorgio Moroder - Racer - таба, видео

Печатать
Просмотров: 70
Song: Racer
Artist: Giorgio Moroder
Project: Google Chrome "Racer"
Year: 2013
Tabber: beranger80@hotmail.com



Intro (0:00)

Fm C# D# Fm



Riff A (0:15)

  Fm
e---------------------------|
b--0-1-0-1-------0-1-0-1----|
g----------0-1-----------1--|
d---------------------------|
a---------------------------|
e---------------------------|

   C#
e----------------------------|
b----------------------------|
g--0-1-0-1-0-1---0-1-0-1-----|
d-------------------------3--|
a----------------------------|
e----------------------------|

   D#
e---------------------------------|
b---------------------------------|
g--2-3-2-3-2-3---2-3-2-3-2-3-2-3--|
d---------------------------------|
a---------------------------------|
e---------------------------------|

   Fm
e-------------------------------|
b--0-1-0-1-----0-1-0-1-0-1-0-1--|
g----------1--------------------|
d-------------------------------|
a-------------------------------|
e-------------------------------|



0:30 Riff A 



Riff B (0:45)

  Fm       C#    D#        Fm
e--1-----|-----|--1-----|-----|
b-----4--|--1--|-----4--|--1--|
g--------|-----|--------|-----|
d--------|-----|--------|-----| x2
a--------|-----|--------|-----|
e--------|-----|--------|-----|



Riff C (1:15) (+ Riff A)

  Fm          C#           D#        Fm
e--1--------------------|------------3-1--|
b------4-1--------------|------1-4--------|
g------------3-1---3----|--3--------------|
d--------------------3--|-----------------| x2
a-----------------------|-----------------|
e-----------------------|-----------------|



Break (1:45)

Fm C# D# Fm
Fm C# D# Fm



2:15 Riff A 

2:30 Riff A + C



Break (2:45)

Fm C# D# Fm
Fm C# D# Fm



3:17 Riff A + C (and fade out from 3:45)
Добавлено: 04.12.2015
Другие материалы по этой песне:
  • Аккорды и текст

Страница создана 04.12.2015
http://primanota.ru/giorgio-moroder/racer-chords.htm
Привет, Гость.
Предлагаем пройти революционный курс по гитаре.
Подарок от PrimaNota.Ru, забирай!