PrimaNota.ru - самый крупный в мире бесплатный архив песенных текстов, аккордов, табулатур и нот


Gio - Getar Hati - таба, видео

Регистрация Запомнить меня
Войти через:  Facebook Google Twitter Vk Yandex Mail.ru

Gio - Getar Hati - таба, видео

Печатать
Просмотров: 149
Уроки эстрадного вокала в Санкт-Петербурге
Intro
E----------------------------------------|
B----------------------------------------|
G--4444---5555---4444---5555-------------|
D--5555---5555---5555---5555---55555555--|
A--3333---3333---3333---3333---55555555--|
E------------------------------33333333--|


Verse
E--------------------------------------------|
B--------------------------------------------|
G--4-x-4-x-5-x-5-x-4-x-4-x-5-x-5-------------|
D--5-x-5-x-5-x-5-x-5-x-5-x-5-x-5---55555555--|
A--3-x-3-x-3-x-3-x-3-x-3-x-3-x-3---55555555--|
E----------------------------------33333333--|
   Saat pertama aku mengenal dirimu...

E--------------------------------------------|
B--------------------------------------------|
G--4-x-4-x-5-x-5-x-4-x-4-x-5-x-5-------------|
D--5-x-5-x-5-x-5-x-5-x-5-x-5-x-5---55555555--|
A--3-x-3-x-3-x-3-x-3-x-3-x-3-x-3---55555555--|
E----------------------------------33333333--|
   Berdetar jiwa ragaku kau mempersonaku...


Riff
E--------------------------------------------|
B--------------------------------------------|
G--0000000--5555555-----------5555555--------|
D--2222222--5555555--7777777--5555555--------|
A--2222222--3333333--7777777--3333333--------|
E--0000000-----------5555555-----------------|
   Tanpamu aku lemah, kau berikanku cahaya...


E--------------------------------------------|
B--------------------------------------------|
G--0000000--5555555-----------------7777777x-|
D--2222222--5555555--7777777777777--7777777x-|
A--2222222--3333333--7777777777777--5555555x-|
E--0000000-----------5555555555555-----------|
   Terangi gelap hidupku, ku luluh padamu...


Chorus
E--------------------------------------------|
B--------------------------------------------|
G------------55555555------------------------|
D--55555555--55555555--77777777--55555555----|
A--55555555--33333333--77777777--55555555----|
E--33333333------------55555555--33333333----|
   Dengar Hatiku kan ku Bisikan Cintaku... (cintaku)
   Lihat jiwaku kan kau dapatkan setiaku...

E--------------------------------------------|
B--------------------------------------------|
G------------55555555------------------------|
D--55555555--55555555--77777777--55555555----|
A--55555555--33333333--77777777--55555555----|
E--33333333------------55555555--33333333----|
   Ingat diriku kau kan rasakan rinduku...
   Untuk dirimu kan Ku berikan hidupku...


Outro
E----------------------------------------|
B----------------------------------------|
G--4444---5555---4444---5555-------------|
D--5555---5555---5555---5555---55555555--|
A--3333---3333---3333---3333---55555555--|
E------------------------------33333333--|
Добавлено: 18.06.2012
Вам также может быть интересно:
Другие материалы по этой песне:
  • Аккорды и текст

Страница создана 16.05.2012
http://primanota.ru/gio/getar-hati-chords.htm
Привет, Гость.
Предлагаем пройти революционный курс по гитаре.
Подарок от PrimaNota.Ru, забирай!