PrimaNota.ru - самый крупный в мире бесплатный архив песенных текстов, аккордов, табулатур и нот


Ginuwine - Where Did You Go - таба, видео

Регистрация Запомнить меня
Войти через:  Facebook Google Twitter Vk Yandex Mail.ru

Ginuwine - Where Did You Go - таба, видео

Печатать
Просмотров: 157
Author/Artist: Ginuwine
Title: Why Did You Go
Transcribed by: Saverain
Email: onlythebesttabs@hotmail.com

/ = slide up
\ = slide down
b = bend
r = release bend
v = strum down
^ = strum up
h = hammer on
p = pull off

hint: I tabbed the pieces of the chorus that I could hear.
The first part of the interlude is probably not guitar.
The verse is just about right.

Standard Tuning (EADGBe)

----------|----------------------------|------------|--------|----------------|
----------|--------5--------------5----|------------|-5/7--7-|----------------|
----------|-----------5----------------|------------|-4/6--6-|----------------|
----------|----------------------------|------------|--------|----------------|
----------|----------------------------|-5/7-5------|--------|----------------|
----------|----------------------------|------------|--------|----------------|
  Chorus           h  h           h

----------|-9----9--------9-----------------0----------9----9----9-----9------|
----------|-10---10----10------7---5---2------0h2p0----10---10---10------10---|
----------|-------------------------------------------------------------------|
----------|-------------------------------------------------------------------|
----------|-------------------------------------------------------------------|
----------|-------------------------------------------------------------------|
  Verse
------------------0---------|-------|-----------------------------------------|
----7---5---3-2-----0h2p0---|-------|-----------------------------------------|
----------------------------|-------|-----------------------------------------|
----------------------------|-------|-----------------------------------------|
----------------------------|-------|-----------------------------------------|
----------------------------|-------|-----------------------------------------|
                              Verse
----------|-9---5/7\5-5------------------------------------------|------------|
----------|-10---------------5------5-----------14-14--14--x-10--|------------|
----------|----------------7-----4-----4/6-4----14-14--14--x-9---|------------|
----------|-------------------------------------14-14--14--x-7---|------------|
----------|-------------------------------------12-12--12--x-----|------------|
----------|------------------------------------------------------|------------|

Interlude play for chorus right after
Добавлено: 25.03.2012
Вам также может быть интересно:
Другие материалы по этой песне:
  • Аккорды и текст

Страница создана 25.03.2012
http://primanota.ru/ginuwine/where-did-you-go-chords.htm
Привет, Гость.
Предлагаем пройти революционный курс по гитаре.
Подарок от PrimaNota.Ru, забирай!