PrimaNota.ru - самый крупный в мире бесплатный архив песенных текстов, аккордов, табулатур и нот


Gino Vannelli - Just A Motion Away - текст песни, таба, видео

Регистрация Запомнить меня
Войти через:  Facebook Google Twitter Vk Yandex Mail.ru

Gino Vannelli - Just A Motion Away - текст песни, таба, видео

Печатать
Просмотров: 127
                         JUST A MOTION AWAY
     D
E--------------------------------------------------------|
B--------------------------------------------------------|
G--------------------------------------------------------|
D--------------------------------------------------------|
A----12-12-12-12-12-12-12-12-12-12-12-12-12-12-12-12-----|
E----10-10-10-10-10-10-10-10-10-10-10-10-10-10-10-10-----|


                             D/C#
E--------------------------------------------------------|
B--------------------------------------------------------|
G--------------------------------------------------------|
D--------------------------------------------------------|
A----12-12-12-12-12-12-12-12-12-12-12-12-12-12-12-12-----|
E----10-10-10-10-10-10-10-10--9--9--9--9—-9--9--9--9-----|
     sometimes you win   sometimes you lose
          You got your demons I got mine

     D7/C                    Gsus2/B     G/B
E------------------------------------------------------|
B------------------------------------------------------|
G------------------------------------------------------|
D------------------------------------------------------|
A----12-12-12-12-12-12-12-12-12-12-12-12-10-10-10-10---|
E-----8-—8-—8-—8-—8-—8-—8-—8—-7--7--7--7--7--7--7--7---|
       Ain't turnin' back for me    and   you
  Our paths have crossed at a crucial    time


    Gm/Bb                  Dsus4/A     D/A
E----------------------------------------------------|
B----------------------------------------------------|
G----------------------------------------------------|
D----------------------------------------------------|
A--10-10-10-10-10-10-10-10-10-10-10-10--9--9--9--9---|
E---6--6--6--6--6--6--6--6--5--5--5--5--5--5--5--5---|
       Don't look over your shoul       der
       Suddenly we're       ol          der


    Esus2/G#    E/G#        A
E-------------------------------------------------------|
B-------------------------------------------------------|
G-------------------------------------------------------|
D-------------------------------------------------------|
A---9--9--9--9--7--7--7--7--3--3--3--3--3--3--3--3--3---|
E---4--4--4--4--4--4--4--4--5--5--5--5--5--5--5--5--5---|
            No time    for  regrets
            Scared of whats ahead

         Gb7/Bb                 Bm        Bm/A
We were         looking for the answers

   E7/G#                   A       A7/G
          In all the wrong places

            D/F#                     G
But now the       chance is knocking on our door

   F/Bb         C/F                  Dsus4
To grab hold of what we been readin' for

/A /B   C   G/B                     Dsus4   D  Dsus4
                  It's just a motion away

/A /B   C   G/B                     Dsus4   D  Dsus4
                  It's just a motion away

/A   /B   C   G/B                     F/Bb     C/F
                   It's just a motion away

D                           D/C#
No need to wonder where the future lies

D7/C                       Gsus2/B G/B
     It's right before our very    eyes

Gm/Bb                     Dsus4/A  D/A
      Don't even think it o       ver

E7sus2/G#  E7/G#          A
                 Just say yes

        Gb7/Bb           Bm        Bm/A
We were clinging to some old cli   ches

    E7/G#         A       A7/G
And old familar  faces

D/F#                   G
      Now they're only shattered dreams

         F/Bb                   C/F        Dsus4
So let's       dry our eyes and walk away clean


/A /B   C   G/B                    Dsus4   D  Dsus4
                  It's just a motion away

/A /B   C   G/B                      Dsus4   D  Dsus4
                  It's just a motion away

/A   /B   C   G/B                     F/Bb     C/F
                   It's just a motion away


 guitar solo:

     D                       D/C#
E------5--5--5-—5------------------------------5---5---|
B--------------------8---7---5-------------------------|
G-------------------------------------4----------------|
D------------------------------------------------------|
A----12-12-12-12-12-12-12-12-12-12-12-12-12-12-12-12---|
E----10-10-10-10-10-10-10-10--9--9--9--9—-9--9--9--9---|


     D7/C                    Gsus2/B     G/B
E-----5--------------------------------------------------|
B----------8---7----5----7----------3-----5----7--8--7---|
G-----------------------------4--------------------------|
D--------------------------------------------------------|
A----12-12-12-12-12-12-12-12-12-12-12-12-10-10-10-10-----|
E-----8-—8-—8-—8-—8-—8-—8-—8—-7--7--7--7--7--7--7--7-----|

      D                       D/C#
E---------7--10--7--10--7--10--12---9------------------|
B----10--------------------------------10--10—10--12---|
G------------------------------------------------------|
D------------------------------------------------------|
A----12-12-12-12-12-12-12-12-12-12-12-12-12-12-12-12---|
E----10-10-10-10-10-10-10-10--9--9--9--9—-9--9--9--9---|


     D7/C                    Gsus2/B     G/B
E-------8---8---8----7----5---7-----10----3-----------------|
B-------10--10--10---8----7---8-----------0-----------------|
G-----------------------------------------------------------|
D-----------------------------------------------------------|
A----12-12-12-12-12-12-12-12-12-12-12-12-10-10-10-10--------|
E-----8-—8-—8-—8-—8-—8-—8-—8—-7--7--7--7--7--7--7--7--------|

Gm/Bb                   Dsus4/A  D/A
Now  don't  you think it o        ver


E7sus2/G#  E7/G#
                 Just say yes

        Gb7/Bb                Bm        Bm/A
We were       lookin' for the answers

   E7/G#                    A        A7/G
          In all the wrong places

             D/F#                   G
But now the      chance is knocking on our door


   F/Bb        C/F                Dsus4
To open up our aching hearts once more


/A /B   C   G/B                      Dsus4   D  Dsus4   D
                  It's just a motion away

/A /B   C   G/B                     Dsus4   D  Dsus4   D
                  It's just a motion away

/A   /B   C   G/B                     F/Bb     C/F      Dsus4
                   It's just a motion away


repeat...
Добавлено: 05.06.2012
Другие материалы по этой песне:
  • Аккорды и текст

Страница создана 11.04.2012
http://primanota.ru/gino-vannelli/just-a-motion-away-chords.htm
Привет, Гость.
Предлагаем пройти революционный курс по гитаре.
Подарок от PrimaNota.Ru, забирай!