PrimaNota.ru - самый крупный в мире бесплатный архив песенных текстов, аккордов, табулатур и нот


Giniling Festival - Psycho Sya - таба, видео

Регистрация Запомнить меня
Войти через:  Facebook Google Twitter Vk Yandex Mail.ru

Giniling Festival - Psycho Sya - таба, видео

Печатать
Просмотров: 109
Title    : Psycho Sya   
Artist   : Giniling Festival
Tabbed by: Ramon O. Ferrer
e-mail   : chochany17@yahoo.com



Pasenxa na sa tab ko pirs taym..c",)



INTRO...
     G     A     B      C       D
E |-------------------------------------------------------------11-10-------------|
B |----------------------------------15-13-11-15-13-11-10-11-13-------13-11-13-15-|
G |----------------------------7777-----------------------------------------------| 
D |-555---777---999---101010---7777-----------------------------------------------| 
A |-555---777---999---101010---5555-----------------------------------------------|
E |-333---555---777---8-8-8-------------------------------------------------------|

1st VERSE...
    G           Bm             Am              C    Eb-D
E |------------------------------------------------------|
B |------------------------------------------------------|
G |-------------4------------------------------5----8-7--|
D |-5-----------4--------------7---------------5----8-7--|
A |-5-----------2--------------7---------------3----6-5--|
E |-3--------------------------5-------------------------|
   Umuwi akong putok ang labi, umiiyak at may pasa       
  
    G             Bm                Am    C  -  D  C  -  D   Eb-D-Eb-D
E |------------------------------------------------------------------|
B |------------------------------------------------------------------|
G |---------------4-----------------------5-----7--5-----7---8-7-8-7-|
D |-5-------------4-----------------7-----5-----7--5-----7---8-7-8-7-|
A |-5-------------2-----------------7-----3-----5--3-----5---6-5-6-5-|
E |-3-------------------------------5--------------------------------|
   Ginulpi ako at binugbog ng aking syota sobra na hayop sya         

    G                    Bm             Am                      C
E |------------------------------------------------------------------|
B |------------------------------------------------------------------|
G |----------------------4--------------------------------------5----|
D |-5--------------------4--------------7-----------------------5----|
A |-5--------------------2--------------7-----------------------3----|
E |-3-----------------------------------5----------------------------|                        
   Naglalakad ako ng may nakitang babae nakatingin sa akin nagbigay 
   ng flying kiss      
 
   G              Bm                Am               C          D
E |-------------------------------------------------------------------|
B |-------------------------------------------------------------------|
G |---------------4----------------------------------5----------7-----|
D |-5-------------4-----------------7----------------5----------7-----|
A |-5-------------2-----------------7----------------3----------5-----|
E |-3-------------------------------5---------------------------------|  
   Sinalo ko at kumindat pabalik hindi ko alam nasa likod ko gf ko  


CHORUS...
                        
    E        C#m   A              B     A                     B
E |------------------------------------------------------------------|
B |------------------------------------------------------------------|
G |-9--------6-------------------------------------------------------|
D |-9--------6-----7--------------9-----7---------------------9------|
A |-7--------4-----7--------------9-----7---------------------9------|
E |----------------5--------------7-----5---------------------7------|
   Sampal at dagok flying kick at batok hindi pa tapos dinagdagan nya
   pa uli

    E        C#m   A    B     A                 B     
E |------------------------------------------------------------------|
B |------------------------------------------------------------------|
G |-9--------6-------------------------------------------------------|
D |-9--------6-----7----9------7----------------9--------------------|
A |-7--------4-----7----9------7----------------9--------------------|
E |----------------5----7------5----------------7--------------------|
    Kagat ng aso sipang kabayo hindi ko na kaya ayoko na uye
 
   
E |------------------------------------------------------------------|
B |------------------------------------------------------------------|
G |-----------9--8--6---------------------7--------------------------|
D |-----------9--8--6-------77------------7--------------------------|2x
A |-----------7--6--4-------77------------5--------------------------|
E |-------------------------55---------------------------------------|
  | Mahal ko sya ngunit            psycho sya


INTRO...
E |-----------------------------------------------------------------|
B |-12-10----12-10-------------13-11----------12--------------------|
G |-------12-------12-10-12-14-------14-12-14-----------------------|
D |-----------------------------------------------------------------|
A |-----------------------------------------------------------------|
E |-----------------------------------------------------------------|

2nd Verse
Laking gulo ang dulot sakin hindi pa nga mag-asawa
Sakit sa bulsa perwisyo ang aking syota sobra na hayooop syaaa!
Nakasakay sa bus ng may pumarang babae sya ay nakasabit kaya di 
ko natiis pinaupo ko sa kanlungan ko kaya lang kasama ko pala ang
gf ko..

CHORUS...

Adlib
1:59
E |-------------11-------------------aw hirap kapain un part na toh-----|
B |-------11-13----13-11-----------------hindi ko kaya -----------------|
G |-10-12----------------10----------------kau n bahala...--------------|
2:17
E |---------------------------------------------------------------------|
B |-12-10----12-10-------------13-11----------12------------------------|
G |-------12-------12-10-12-14-------14-12-14---------------------------|

CHORUS...

-END-

Congratz nga pala sa Unciano College Top 1 sa 2006 Nursing Board exam! hehe sikat! \m/_
Добавлено: 22.06.2012
Другие материалы по этой песне:
  • Аккорды и текст

Страница создана 22.06.2012
http://primanota.ru/giniling-festival/psycho-sya-chords.htm
Привет, Гость.
Предлагаем пройти революционный курс по гитаре.
Подарок от PrimaNota.Ru, забирай!