PrimaNota.ru - самый крупный в мире бесплатный архив песенных текстов, аккордов, табулатур и нот


Ginger - Motorvate - таба, видео

Регистрация Запомнить меня
Войти через:  Facebook Google Twitter Vk Yandex Mail.ru

Ginger - Motorvate - таба, видео

Печатать
Просмотров: 108
Artist: Ginger
Song: Motörvate
Album: Up In Flames sampler
Tuning: Eb



eb|--------------------------------------------| x2
Bb|--------------------------------------------|
Gb|--------------------------------------------|
Db|--------------------------------------------|
Ab|--7-7-9-7--7-7-9-7--7-7-9-7--7-7-9-7--------|
Eb|--5-5-5-5--5-5-5-5--5-5-5-5--5-5-5-5--------|


eb|--------------------------------------------| x2
Bb|--------------------------------------------|
Gb|--------------------------------------------|
Db|--------------------------------------------|
Ab|--7-7-9-7--7-7-9-7--7-7-9-7--7-7-9-7--------|
Eb|--5-5-5-5--5-5-5-5--5-5-5-5--5-5-5-5--------|
  |                                            |
  |                                            |
eb|--------------------------------------------|
Bb|--------------------------------------------|
Gb|--------------------------------------------|
Db|--------------------------------------------|
Ab|--7-7------7-7-7------7-7---7-7-7-----------|
Eb|--5-5------5-5-5------5-5---5-5-5-----------|



eb|------------------------------------------------------|
Bb|------------------------------------------------------|
Gb|------------------------------------------------------|
Db|------------------------------------------------------|
Ab|--7-7----7-7----7-7--------7-7----7-7----7-7----------|
Eb|--5-5----5-5----5-5--------5-5----5-5----5-5----------|


eb|--------------------------------------------|
Bb|--------------------------------------------|
Gb|--------------------------------------------|
Db|--2-2-2-2--2-2-2-2--2-2-2-2--2-2-2-2--2-----|
Ab|--2-2-2-2--2-2-2-2--2-2-2-2--2-2-2-2--2-----|
Eb|--0-0-0-0--0-0-0-0--0-0-0-0--0-0-0-0--0-----|


eb|--------------------------------------------| x2
Bb|--------------------------------------------|
Gb|--------------------------------------------|
Db|--------------------------------------------|
Ab|--7-7-9-7--7-7-9-7--7-7-9-7--7-7-9-7--------|
Eb|--5-5-5-5--5-5-5-5--5-5-5-5--5-5-5-5--------|
  |                                            |
  |                                            |
eb|--------------------------------------------|
Bb|--------------------------------------------|
Gb|--------------------------------------------|
Db|--------------------------------------------|
Ab|--7-7------7-7-7------7-7---7-7-7-----------|
Eb|--5-5------5-5-5------5-5---5-5-5-----------|


eb|------------------------------------------------------------------------------------|
Bb|------------------------------------------------------------------------------------|
Gb|--5---------------------------------------------------------------------------7-----|
Db|--5--------9--------3-3----x/----4-4---x/----5-5---x/----6----7--------5--5---7-----|
Ab|--3--------7--------3-3----x/----4-4---x/----5-5---x/----6----7--------5--5---5-----|
Eb|-----------0--------1-1----x/----2-2---x/----3-3---x/----4----5--------3--3---------|


eb|---------------------------------------------------| x2
Bb|---------------------------------------------------|
Gb|----------------------------------------------7----|
Db|----------------------------------------5--5--7----|
Ab|--7-7-9-7--7-7-9-7--7-7-9-7--7-7-9-7----5--5--5----|
Eb|--5-5-5-5--5-5-5-5--5-5-5-5--5-5-5-5----3--3-------|
  |                                                   |
eb|---------------------------------------------------|
Bb|---------------------------------------------------|
Gb|----------------------------------------------7----|
Db|----------------------------------------5--5--7----|
Ab|--7-7------7-7-7------7-7---7-7-7-------5--5--5----|
Eb|--5-5------5-5-5------5-5---5-5-5-------3--3-------|


eb|--------------------|
Bb|--------------------|
Gb|--------------------|
Db|--------------------|
Ab|--7--7----7--7------|
Eb|--5--5----5--5------|


eb|--------------------------------------------| x2
Bb|--------------------------------------------|
Gb|--------------------------------------------|
Db|--------------------------------------------|
Ab|--7-7-9-7--7-7-9-7--7-7-9-7--7-7-9-7--------|
Eb|--5-5-5-5--5-5-5-5--5-5-5-5--5-5-5-5--------|


eb|--------------------------------------------| x2
Bb|--------------------------------------------|
Gb|--------------------------------------------|
Db|--------------------------------------------|
Ab|--7-7-9-7--7-7-9-7--7-7-9-7--7-7-9-7--------|
Eb|--5-5-5-5--5-5-5-5--5-5-5-5--5-5-5-5--------|
  |                                            |
  |                                            |
eb|--------------------------------------------|
Bb|--------------------------------------------|
Gb|--------------------------------------------|
Db|--------------------------------------------|
Ab|--7-7------7-7-7------7-7---7-7-7-----------|
Eb|--5-5------5-5-5------5-5---5-5-5-----------|
  |                                            |
eb|------12------------------------------------|
Bb|--------------------------------------------|
Gb|------------11---11b----11b----11~----------|
Db|-9------------------------------------------|
Ab|--------------------------------------------|
Eb|--------------------------------------------|


eb|------------------------------------------------------|
Bb|------------------------------------------------------|
Gb|------------------------------------------------------|
Db|------------------------------------------------------|
Ab|--7-7----7-7----7-7--------7-7----7-7----7-7----------|
Eb|--5-5----5-5----5-5--------5-5----5-5----5-5----------|


eb|---------------------------------------------------|
Bb|---------------------------------------------------|
Gb|---------------------------------------------------|
Db|--2-2-2-2--2-2-2-2--2-2-2-2--2-2-2-2--2------------|
Ab|--2-2-2-2--2-2-2-2--2-2-2-2--2-2-2-2--2------------|
Eb|--0-0-0-0--0-0-0-0--0-0-0-0--0-0-0-0--0---/15b~----|


eb|--------------------------------------------| x2
Bb|--------------------------------------------|
Gb|--------------------------------------------|
Db|--------------------------------------------|
Ab|--7-7-9-7--7-7-9-7--7-7-9-7--7-7-9-7--------|
Eb|--5-5-5-5--5-5-5-5--5-5-5-5--5-5-5-5--------|
  |                                            |
  |                                            |
eb|--------------------------------------------|
Bb|--------------------------------------------|
Gb|--------------------------------------------|
Db|--------------------------------------------|
Ab|--7-7------7-7-7------7-7---7-7-7-----------|
Eb|--5-5------5-5-5------5-5---5-5-5-----------|


eb|------------------------------------------------------------------------------------|
Bb|------------------------------------------------------------------------------------|
Gb|--5---------------------------------------------------------------------------7-----|
Db|--5--------9--------3-3----x/----4-4---x/----5-5---x/----6----7--------5--5---7-----|
Ab|--3--------7--------3-3----x/----4-4---x/----5-5---x/----6----7--------5--5---5-----|
Eb|-----------0--------1-1----x/----2-2---x/----3-3---x/----4----5--------3--3---------|


eb|---------------------------------------------------| x2
Bb|---------------------------------------------------|
Gb|----------------------------------------------7----|
Db|----------------------------------------5--5--7----|
Ab|--7-7-9-7--7-7-9-7--7-7-9-7--7-7-9-7----5--5--5----|
Eb|--5-5-5-5--5-5-5-5--5-5-5-5--5-5-5-5----3--3-------|
  |                                                   |
eb|---------------------------------------------------|
Bb|---------------------------------------------------|
Gb|----------------------------------------------7----|
Db|----------------------------------------5--5--7----|
Ab|--7-7------7-7-7------7-7---7-7-7-------5--5--5----|
Eb|--5-5------5-5-5------5-5---5-5-5-------3--3-------|


eb|--------------------|
Bb|--------------------|
Gb|--------------------|
Db|--------------------|
Ab|--7--7----7--7------|
Eb|--5--5----5--5------|


eb|--------------------------------------------| x2
Bb|--------------------------------------------|
Gb|--------------------------------------------|
Db|--------------------------------------------|
Ab|--7-7-9-7--7-7-9-7--7-7-9-7--7-7-9-7--------|
Eb|--5-5-5-5--5-5-5-5--5-5-5-5--5-5-5-5--------|


eb|--------------------------------------------| x2
Bb|--------------------------------------------|
Gb|--------------------------------------------|
Db|--------------------------------------------|
Ab|--7-7-9-7--7-7-9-7--7-7-9-7--7-7-9-7--------|
Eb|--5-5-5-5--5-5-5-5--5-5-5-5--5-5-5-5--------|
  |                                            |
  |                                            |
eb|--------------------------------------------|
Bb|--------------------------------------------|
Gb|--------------------------------------------|
Db|--------------------------------------------|
Ab|--7-7------7-7-7------7-7---7-7-7-----------|
Eb|--5-5------5-5-5------5-5---5-5-5-----------|


eb|------------------------------------------------------|
Bb|------------------------------------------------------|
Gb|------------------------------------------------------|
Db|------------------------------------------------------|
Ab|--7-7----7-7----7-7--------7-7----7-7----7-7----------|
Eb|--5-5----5-5----5-5--------5-5----5-5----5-5----------|


eb|--------------------------------------------|
Bb|--------------------------------------------|
Gb|--------------------------------------------|
Db|--2-2-2-2--2-2-2-2--2-2-2-2--2-2-2-2--2-----|
Ab|--2-2-2-2--2-2-2-2--2-2-2-2--2-2-2-2--2-----|
Eb|--0-0-0-0--0-0-0-0--0-0-0-0--0-0-0-0--0-----|


eb|--------------------------------------------| x2
Bb|--------------------------------------------|
Gb|--------------------------------------------|
Db|--------------------------------------------|
Ab|--7-7-9-7--7-7-9-7--7-7-9-7--7-7-9-7--------|
Eb|--5-5-5-5--5-5-5-5--5-5-5-5--5-5-5-5--------|
  |                                            |
  |                                            |
eb|--------------------------------------------|
Bb|--------------------------------------------|
Gb|--------------------------------------------|
Db|--------------------------------------------|
Ab|--7-7------7-7-7------7-7---7-7-7-----------|
Eb|--5-5------5-5-5------5-5---5-5-5-----------|


eb|------------------------------------------------------------------------------------|
Bb|------------------------------------------------------------------------------------|
Gb|--5---------------------------------------------------------------------------7-----|
Db|--5--------9--------3-3----x/----4-4---x/----5-5---x/----6----7--------5--5---7-----|
Ab|--3--------7--------3-3----x/----4-4---x/----5-5---x/----6----7--------5--5---5-----|
Eb|-----------0--------1-1----x/----2-2---x/----3-3---x/----4----5--------3--3---------|


eb|---------------------------------------------------| x2
Bb|---------------------------------------------------|
Gb|----------------------------------------------7----|
Db|----------------------------------------5--5--7----|
Ab|--7-7-9-7--7-7-9-7--7-7-9-7--7-7-9-7----5--5--5----|
Eb|--5-5-5-5--5-5-5-5--5-5-5-5--5-5-5-5----3--3-------|
  |                                                   |
eb|---------------------------------------------------|
Bb|---------------------------------------------------|
Gb|----------------------------------------------7----|
Db|----------------------------------------5--5--7----|
Ab|--7-7------7-7-7------7-7---7-7-7-------5--5--5----|
Eb|--5-5------5-5-5------5-5---5-5-5-------3--3-------|


eb|-------------------------------------------------------------------|
Bb|-------------------------------------------------------------------|
Gb|-------------------------------------------------------------------|
Db|-------------------------------------------------------------------|
Ab|--7--7----7--7----7--7----7--7----7--7----7--7----7--7----7--7-----|
Eb|--5--5----5--5----5--5----5--5----5--5----5--5----5--5----5--5-----|



eb|--------------------------------------------------------------------------| x3
Bb|-------------5-5-----5-5-----5-5------------------5-5-----5-5-----7b-r----|
Gb|--------p----5-5-----5-5-----5-5----------p-------5-5-----5-5-----7b-r----|
Db|--7--7-7-5--------7-------7---------7--7-7-5-----------7-------7----------|
Ab|-----------7-----------------------------------7--------------------------|
Eb|--------------------------------------------------------------------------|


eb|-----------------------------| x3
Bb|--8br------------------------|
Gb|-------9--8--7---------------|
Db|----------------10-----------|
Ab|-----------------------------|
Eb|-----------------------------|
  |                             |
eb|-----------------------------|
Bb|-----------------------------|
Gb|-----------------------------|
Db|--7--5-----------------------|
Ab|--------7--6--5--------------|
Eb|-----------------8-----------|


eb|-------------|
Bb|-------------|
Gb|-------------|
Db|--7--7-------|
Ab|--7--7-------|
Eb|--5--5-------|



Key:

X/ = Pick Slide
b = bend
r = release
/ = Slide
~ = Virbrato
p = Pull off
Добавлено: 18.07.2012
Другие материалы по этой песне:
  • Аккорды и текст

Страница создана 18.07.2012
http://primanota.ru/ginger/motorvate-chords.htm
Привет, Гость.
Предлагаем пройти революционный курс по гитаре.
Подарок от PrimaNota.Ru, забирай!