PrimaNota.ru - самый крупный в мире бесплатный архив песенных текстов, аккордов, табулатур и нот


Gin Wigmore - New Revolution - таба, видео

Регистрация Запомнить меня
Войти через:  Facebook Google Twitter Vk Yandex Mail.ru

Gin Wigmore - New Revolution - таба, видео

Печатать
Просмотров: 74
Hey, this is the main riff that plays, the rest of the chords is a picking style, 
listen to the song you'll figure it out!

Intro:
     B      Abm     G     E        B     Abm     G       E
e|------------------------------------------------------------|
B|----4-----------------------------4-------------------------|
G|---4-4-----4------4------1-------4-4-----4------4------1----|
D|--4---4---6-4----5-5----2-2-----4---4---6-4----5-5----2-2---|
A|-2-------6---4--5---5--2---2---2-------6---4--5---5--2---2--|
E|--------4------3------0---------------4------3------0-------|

[Verse:]

B            Abm         G           E  B            Abm         G            E
Hey, can you heal these broken bones? Hey, can you guide the thoughts we own?
B            Abm         G          E         B      Abm         G            E
How, with a question, I need to know, We will rise to burn if you let this go

[Pre-chorus:]
       C#                    F#m        F#M
In the dark of day teach us love again, Pray we stay

[Chrous:]
                              (the F# is one strum, listen to the song)
         B         Eb      E  F#       B       Eb             E    F#
For the new revolution is here, and the road to redemption is near
     C#m           Eb        E   F#
Come hell or high water, babe,      we'll keep moving on

     B      Abm     G     E       
e|------------------------------|
B|----4-------------------------|
G|---4-4-----4------4------1----|
D|--4---4---6-4----5-5----2-2---|
A|-2-------6---4--5---5--2---2--|
E|--------4------3------0-------|

[Verse:]
B            Abm         G           E  B            Abm         G          E
Please, will you, mister, show me home? please, tell my mother to carry on
B            Abm         G          E         B      Abm         G          E
Stand up, little darling, I been told, to stand up and fight for living strong

[Pre-chorus:]
       C#                    F#m        F#M
In the dark of day teach us love again, Pray we stay

[Chrous:]
                              (the F# is one strum, listen to the song)
         B         Eb      E  F#       B       Eb             E    F#
For the new revolution is here, and the road to redemption is near
     C#m           Eb        E   F#                      C#m           Eb        E   F#
Come hell or high water, babe,      we'll keep moving on, yeah, yeah, yeah, We'll keep moving on

[Solo:]
C#m           Eb        E   F#

We'll keep moving on

     B      Abm     G     E        
e|------------------------------|
B|----4-------------------------|
G|---4-4-----4------4------1----|
D|--4---4---6-4----5-5----2-2---|  X2
A|-2-------6---4--5---5--2---2--|
E|--------4------3------0-------|


[Chorus:]
         B         Eb      E  F#       B       Eb             E    F#
Oh, yeah, the new revolution is here, and the road to redemption is near, yeah
    B         Eb      E  F#      C#m     Eb              E       F#
The new revolution is here, come hell or high water, baby
We'll keep moving on

     B      Abm     G     E       
e|------------------------------|
B|----4-------------------------|
G|---4-4-----4------4------1----|
D|--4---4---6-4----5-5----2-2---|  X2
A|-2-------6---4--5---5--2---2--|
E|--------4------3------0-------|
We'll keep moving on

The last E is played together
Awesome song!!

B-799877
Abm-466444
G-355433
E-022100
C#m-X46654
Eb-X68886
E-X79997 - for chorus
F#-X91111119 - for chorus

Enjoy!
Eldad
Добавлено: 27.11.2013
Другие материалы по этой песне:
  • Аккорды и текст

Страница создана 27.11.2013
http://primanota.ru/gin-wigmore/new-revolution-chords.htm
Привет, Гость.
Предлагаем пройти революционный курс по гитаре.
Подарок от PrimaNota.Ru, забирай!