PrimaNota.ru - самый крупный в мире бесплатный архив песенных текстов, аккордов, табулатур и нот


Gin Blossoms - Keli Richards - текст песни, таба, видео

Регистрация Запомнить меня
Войти через:  Facebook Google Twitter Vk Yandex Mail.ru

Gin Blossoms - Keli Richards - текст песни, таба, видео

Печатать
Просмотров: 138
ARTIST:Gin Blossoms
TITLE:Keli Richards (3:04)
WRITTEN BY:Doug Hopkins, Bill Leen


CHORDS: C 0 3 2 0 3 3
Cadd9 x 3 2 0 3(3) or 0
Dsus4 x x 0 2 3 3
Em/G 0 x 2 0 3 3
G 3 2 0 0 3 3
G/E 0 x 0 0 3 3
G/F# 2 x 0 0 3 3



G - G/F# - G/E - Dsus4
G - G/F# - G/E - Dsus4

G                                             Cadd9
She came to L.A. all the way from Boston town
G                                                    Cadd9
She wound up on the screen where I saw her goin' down
Em/G
Now I can't see you
Dsus4              C
I can't see you at all
Em
No I don't know you
Dsus4               C
I don't know you at all
G                                                   Cadd9
I bought her films, yeah I bought all her magazines
G                                                        Cadd9
And I watched her every move until I saw her in my dreams
Em
Now I can't stand it
Dsus4               C
See you caught from behind
Em/G
No I don't know you
Dsus4             C
Girl you gotta be mine
              G         G/F# G/E  Dsus4
Keli Richards come on...come on...come on
              G         G/F# G/E  Dsus4
Keli Richards come on...come on...come on

Guitar Solo:
G - Cadd9
G - Cadd9
Em - Dsus4 - C
Em - Dsus4 - C

G                                                     Cadd9
Well I bought a gun, there's just one thing left to do
G                                                     Cadd9
Now I can't make up my mind it comes down to me or you
Em
Now I can't see you
Dsus4              C
I can't see you at all
Em
No I don't know you
Dsus4               C
I don't know you at all
              G         G/F# G/E  Dsus4
Keli Richards come on...come on...come on
              G         G/F# G/E  Dsus4
Keli Richards come on...come on...come on
              G         G/F# G/E  Dsus4
Keli Richards come on...come on...come on
              G         G/F# G/E  Dsus4
Keli Richards come on...come on...come on
Ending:

                     G
|--------------------3---3-----|-------------------------------------------|
|--------------------3-------3-|-------------------------------------------|
|--------------------0---------|-------------------------------------------|
|-----2--0-----2--0--0---------|-------------------------------------------|
|--3--------3--------2---------|-------------------------------------------|
|--------------------3---------|-------------------------------------------|

 Here's a very rough outline of the solo:
  G                                     Cadd9
|-2h3-3--2h3-3-3-3----2h3-3--2h3-3-3----3-3-3-3-3--3-3-3-3-3|
|-3-3-3--3-3-3-3-3----3-3-3--3-3-3-3----3h5-5-3-5--3h5-5-5-3|
|-----------------------------------------------------------|
|-----------------------------------------------------------|
|-----------------------------------------------------------|
|-----------------------------------------------------------|

  G                                     Cadd9
|-2h3-3--2h3-3-3-3----2h3-3--2h3-3-3----3-3-3-3-3--3-3-3-3-3|
|-3-3-3--3-3-3-3-3----3-3-3--3-3-3-3----3h5-5-3-5--3h5-5-5-3|
|-----------------------------------------------------------|
|-----------------------------------------------------------|
|-----------------------------------------------------------|
|-----------------------------------------------------------|

  Em                           Dsus4
|-12--12--12--12--12--12-12----12--12--12--12--12--12-12----|
|-12--12--12--12--12--12-12----12--12--12--12--12--12-12----|
|-----------------------------------------------------------|
|-----------------------------------------------------------|
|-----------------------------------------------------------|
|-----------------------------------------------------------|

  C
|-12-12--14p12-------------full-----------------------------|
|-12-12-------14p12-14p12--^------I'm not 100% sure of the--|
|-------------------------14------rest, so I'll stop here.--|
|-----------------------------------------------------------|
|-----------------------------------------------------------|
|-----------------------------------------------------------|
Добавлено: 04.07.2012
Другие материалы по этой песне:
  • Аккорды и текст

Страница создана 31.03.2012
http://primanota.ru/gin-blossoms/keli-richards-chords.htm
Привет, Гость.
Предлагаем пройти революционный курс по гитаре.
Подарок от PrimaNota.Ru, забирай!