PrimaNota.ru - самый крупный в мире бесплатный архив песенных текстов, аккордов, табулатур и нот


Gin Blossoms - Hands Are Tied - текст песни, таба, видео

Регистрация Запомнить меня
Войти через:  Facebook Google Twitter Vk Yandex Mail.ru

Gin Blossoms - Hands Are Tied - текст песни, таба, видео

Печатать
Просмотров: 224
H A N D S   A R E  T I E D    GIN BLOSSOMS
Words and Music by JESSE VALENZUELA


INTRO:
    * Guitar / amp noise breifly.

    Riff. A
    Gtr. I: 
         Am                   C                    G                      D
   |-----------------------|---------------------|----------------------|----------------------|
   |-T---------------------|---------------------|----------------------|----------------------|
   |-A---14-14-14-14-14-14-|/-17-17--17-\-16--16-|-16-/14-14--14-12-12--|-12-\--9--9--7-/-12/14|
   |-B---------------------|---------------------|----------------------|----------------------|
   |-----12-12-12-12-12-12-|/-15-15--15-\-14--14-|-14-/12-12--12-10-10--|-10-\--7--7--7-/-10/12|
   |-----------------------|---------------------|----------------------|----------------------|

         Am                   C                    G                      D
   |---12-12-12-12-12-/-15-|-15--12---12--12-----|----------------------|----------------------|
   |-----------------------|------------------15-|-15-15-\-13-13--13--\-|-12-12--12--\--10-----|
   |----9--9--9--9--9-/-12-|-12---9----9---9-----|----------------------|----------------------|
   |-----------------------|------------------12-|-12-12-\-10-10--10--\-|--9--9---9--\---7-----|
   |-----------------------|---------------------|----------------------|----------------------|
   |-----------------------|---------------------|----------------------|----------------------|

VERSE 1:
   Am        C       G          D
   I've been waiting around all night
   Am        C       G     D
   Your warm kiss is on my mind
   Am         C      G        D
   A piece of you is all I've got
           Am    C          G         D     
   But the whole damn thing is what I want

PRE-CHORUS:
   Cadd9                                   D
   I've been waiting around here all night long
   Cadd9                        D               G
   Holding on to these memories until they come undone

CHORUS:
                Am  C   G     D
   My hands are tied
                Am  C   G     D
   My hands are tied
VERSE 2:
   Am          C       G     D
   Telephone's ringing by my bed
     Am         C          G         D
   I pick it on up and the line goes dead
     Am          C     G     D
   I splash some water on my face
   Am        C        G           D
   Clears my mind I'm out of this place

PRE-CHORUS:
   Cadd9                                   D
   I've been waiting around here all night long
   Cadd9                        D               G
   Holding on to these memories until they come undone

CHORUS:
                Am  C   G     D
   My hands are tied
                Am  C   G     D
   My hands are tied

GUITAR SOLO:
   (Gtr I plays Riff A 1 time)
   (Gtr II. plays Riff A chords)

   Gtr I:
      Cadd9                                        D
   |-----------------------|---------------------|----------------------|----------------------|
   |--13-13-13-13--13--13--|/-17--17-\15--15--15-|\13---13-\-12--12-\10-|-10-----10---10-------|
   |-----------------------|---------------------|----------------------|----------------------|
   |--10-10-10-10--10--10--|/-14--14-\12--12--12-|\10---10-\--9---9-\-7-|--7------7----7-------|
   |-----------------------|---------------------|----------------------|----------------------|
   |-----------------------|---------------------|----------------------|----------------------|

      Cadd9                                        D                                          G
   |-----------------------|---------------------|----------------------|----------------------|
   |--Yet to tab-----------|---------------------|----------------------|----------------------|
   |-----------------------|---------------------|----------------------|----------------------|
   |-----------------------|---------------------|----------------------|----------------------|
   |-----------------------|---------------------|----------------------|----------------------|
   |-----------------------|---------------------|----------------------|----------------------|
   
    Am - C - G - D
    Am - C - G - D

VERSE 3:
      Am         C          G        D
   My nerves are frayed and I've had enough
         Am  C           G              D
   I'm a lot afraid that it'll hurt too much
   Am      C       G       D
   I can't seem to stop at all
       Am         C       G                D
   I'm plain wore through waiting for your call

PRE-CHORUS:
   Cadd9                                   D
   I've been waiting around here all night long
   Cadd9                        D               G
   Holding on to these memories until they come undone

CHORUS:
                Am  C   G     D
   My hands are tied

BRIDGE:
   Cadd9                       G
   Want you round here all the time
   Cadd9                               G
   Just can't seem to shake you off my mind

CHORUS:
                Am  C   G     D
   My hands are tied
                Am  C   G     D
   My hands are tied
                Am  C   G     D
   My hands are tied

OUTRO:
   (Gtr I plays Riff A)
   (Gtr II. plays Riff A chords)
   * Let final octave and chord ring

Добавлено: 19.03.2012
Другие материалы по этой песне:
  • Аккорды и текст

Страница создана 19.03.2012
http://primanota.ru/gin-blossoms/hands-are-tied-chords.htm
Привет, Гость.
Предлагаем пройти революционный курс по гитаре.
Подарок от PrimaNota.Ru, забирай!