PrimaNota.ru - самый крупный в мире бесплатный архив песенных текстов, аккордов, табулатур и нот


Gin Blossoms - Follow You Down - The Correct Version - аккорды и текст, таба, видео

Регистрация Запомнить меня
Войти через:  Facebook Google Twitter Vk Yandex Mail.ru

Gin Blossoms - Follow You Down - The Correct Version - аккорды и текст, таба, видео

Печатать
Просмотров: 95
Follow You Down - The Correct Version
Gin Blossoms
		   Author/Artist: Gin Blossoms
Title: Follow You Down
Album: Congratulations, I'm Sorry
Transcribed by: Donavon Lasseter
Email: sonicreducer00@aol.com

There's already a version of this song out...
But I don't know what the hell that guy was thinking.
It's all wrong. Except for the chords. G I've taken it
upon myself to tab it the right way. Here's my version.
The Gin Blossoms FUCKING ROCK. I've got a different layout
I don't think it needs any explanation. Anyhow... here's
the tab. In standard tuning.

Intro:
                                        Verse Pt 1
---------------------------------------|--------------------------------------
--5---3-------3--5---3--------3--------|----3-5/7/8\7-------------------------
---------4h5------------4h5------------|-0------------------------------------
---------------------------------------|--------------------------------------
---------------------------------------|--------------------------------------
---------------------------------------|--------------------------------------

Verse Pt 2                           Verse Pt 3
------------------------------------|-----------------------------------------
--5---5-----5----5---7----5---5-----|-----------------------------------------
------------------------------------|---7-4-----7-4---------------------------
------------------------------------|-------7-------7-------------------------
------------------------------------|-----------------------------------------
------------------------------------|-----------------------------------------

Chorus:
Pt. 1                           Pt. 2
G, Em, C, then:                 G, Em, C, then:
-----------------------------|------------------------------------------------
---8--7--5---3---------------|------------------------------------------------
-----------------------------|--------4--5------------------------------------
-----------------------------|--5--7------------------------------------------
-----------------------------|------------------------------------------------
-----------------------------|------------------------------------------------
 Solo:
repeat twice:                                         repeat twice:
---------------------------------------------------|--------------------------
---------------------------------------------------|--10----10br---8--5-------
---------------------------------------------------|--------------------------
----7-7b--7br--5------5--5--------------5--5-------|--------------------------
-----------------7-7--------7--5----7---------7--5-|--------------------------
---------------------------------------------------|--------------------------


------------------------------------7-5-|-------------------------------------
---5--8--8--5---------8--8--5-----------|-------------------------------------
---------------7---7-----------7--------|-------------------------------------
----------------------------------------|-------------------------------------
----------------------------------------|-------------------------------------
----------------------------------------|-------------------------------------

Follow You Down

INTRO

Verse:
pt 1           pt 2
Did you see the sky, I think it means that we've been lost


Maybe one less time is all we need

pt 3
I can't really help it if my tongue's all tied in knots


Jumpin' off a bridge, it's just the farthest that I've ever been

CHORUS
G            Em          C        pt. 1
Anywhere you go.... I'll follow you down

G             Em             C         pt. 2
Anyplace but those I know by heart

G            Em          C      pt 1
Anywhere you go... I'll follow you down

G               Em        C
I'll follow you down, but not that far

(play intro)

Verse 2

Pt. 1
I know we're headed somewhere, I can see how far we've come


Still I can't remember anything

Pt 2
Let's not do the wrong thing and I'll swear it might be fun


It's a long way down when all the knots we've tied have come undone


Anywhere you go.... I'll follow you down


Anyplace but those I know by heart     
Добавлено: 13.10.2013
Другие материалы по этой песне:
  • Аккорды и текст

Страница создана 25.04.2012
http://primanota.ru/gin-blossoms/follow-you-down-the-correct-version-chords.htm
Привет, Гость.
Предлагаем пройти революционный курс по гитаре.
Подарок от PrimaNota.Ru, забирай!