PrimaNota.ru - самый крупный в мире бесплатный архив песенных текстов, аккордов, табулатур и нот


Gin Blossoms - Angels Tonight - текст песни, таба, видео

Регистрация Запомнить меня
Войти через:  Facebook Google Twitter Vk Yandex Mail.ru

Gin Blossoms - Angels Tonight - текст песни, таба, видео

Печатать
Просмотров: 139
Angels Tonight by Gin Blossoms

Intro riff:
Play 4 times                 
                      D
E|---3-3--3-3-3--3--3--2---2------------------|
B|---1h3--3-3-3--1--0--3-----3--0-------------|
G|---0-0--0-0-0--0--0--2--------0---2h4-2-0---|
D|---------------------0----------------------|
A|--------------------------------------------|
E|--------------------------------------------|

Verse 1

  C         D                 C                 
    Party girls between the sheets,  
                D                 C
    she can't show that much to me
                 D             G    D         
    I'd rather drink until I see     

Chorus
  
    (Play Intro Riff x1)
    Angels Tonight...

Verse 2

  C          D                    C              D               C
    I had a girl I thought was mine, but I wised up and just in time
                   D                     G    D
    Such wisdom makes these sluts look like

    (Play Intro Riff x3)
    Angels tonight.....

SOLO 1

    G     C     D                   Em    D     C
E|--3-3---0-0---2--2---2h3p2--------0-0---2-2---0--0---0-------------|
B|--3---3-1---1-3----3-------3------0---0-3---3-1----1---1-----------|
G|--0-----0-----2--------------2----0-----2-----0----------0---------|
D|--0-----2-----0-------------------2-----0-----2------------2-------|
A|--2-----3-------------------------2-----------3--------------3-----|
E|--3-------------------------------0--------------------------------|

   Am     Bm  C        D 
E|--0-0---2-2---0--0----2-2---------------------------------------|
B|--1---1-3---3-1----1--3---3-------------------------------------|
G|--2-----4-----0-------2--------------------------------7---7h9--|
D|--2-----4-----2-------0---------------5---7--------5-7----------|
A|--0-----2-----3-------------------5-5---7----5-7----------------|
E|----------------------------------------------------------------|

E|------------------------------------------------2-3-5-3-2-2-|
B|---8-----8----8---8---8--------------8-----8----3-5-7-5-3-3-|
G|-----7h9---7—-7h9—7h9-7h9--7-7---------7h9---7--------------|
D|-------------------------------5—7h9------------------------|
A|------------------------------------------------------------|
E|------------------------------------------------------------|


E|-----------------5-3-2-2/3--|
B|------8-----8----7-5-3-3/5--|
G|--------7h9---7-------------|
D|--7h9-----------------------|
A|----------------------------|
E|----------------------------|

 C             D                   C
    As we collide as the lights go out

                     D                 C
    There's someone else she thinks about

                  D                     G     D
    It's all the best that I can figure out

    (Play Intro Riff x3)
    Angels Tonight...

    
SOLO 2

    G     C     D                   Em    D     C
E|--3-3---0-0---2--2---2h3p2--------0-0---2-2---0-0---0-------------|
B|--3---3-1---1-3----3-------3------0---0-3---3-1---1---1-----------|
G|--0-----0-----2--------------2----0-----2-----0---------0---------|
D|--0-----2-----0-------------------2-----0-----2-----------2-------|
A|--2-----3-------------------------2-----------3-------------3-----|
E|--3-------------------------------0-------------------------------|

    Am    Bm    C     D       G  D     G  D     G    D
E|--0-0---2-2---0-0---2-2-----3-3---2-3---3-3---2-0---3-3---2-3--|
B|--1---1-3---3-1---1-3---3---3---3-3---3-3---3-3---3-3---3-3---3|
G|--2-----4-----0-----2-------0-----2-----0-----2-----0-----2----|
D|--2-----4-----2-----0-------0-----0-----0-----0-----0-----0----|
A|--0-----2-----3-------------2-----------2-----------2----------|
E|----------------------------3-----------3-----------3----------|

                               G     D     G     D
E|-3---5--3----7--5--3----3----3-3---2-3---3-3---2-3---3-2-0--|
B|---3------3----------3----3--3---3-3---3-3---3-3---3-------3|
G|-----------------------------0-----2-----0-----2------------|
D|-----------------------------0-----0-----0-----0------------|
A|-----------------------------2-----------2------------------|
E|-----------------------------3-----------3------------------|


Play Intro Riff Till Fade
Добавлено: 14.11.2013
Другие материалы по этой песне:
  • Аккорды и текст

Страница создана 22.02.2012
http://primanota.ru/gin-blossoms/angels-tonight-chords.htm
Привет, Гость.
Предлагаем пройти революционный курс по гитаре.
Подарок от PrimaNota.Ru, забирай!