PrimaNota.ru - самый крупный в мире бесплатный архив песенных текстов, аккордов, табулатур и нот


Gillian Welch - The Way The Whole Thing Ends - таба, видео

Регистрация Запомнить меня
Войти через:  Facebook Google Twitter Vk Yandex Mail.ru

Gillian Welch - The Way The Whole Thing Ends - таба, видео

Печатать
Просмотров: 87
The Way the Whole Thing Ends ~ Gillian Welch
from "The Harrow and the Harvest"

Capo I

G
Say you wanna see my garden
G
And you wanna make it shine
G
Say you wanna see my blue jeans
                           G7
Hanging on your old clothesline

C                        D
Standing in the backdoor crying
G                   C
Now you wanna be my friend
E                            Am
That's the way the cornbread crumbles
D7                             G
That's the way the whole thing ends

Now what's a little baby doing
Dressing up in banker's clothes?
Now what's a little sweetheart like you
Doing with a bloody nose?

Standing in the backdoor crying
Now you're gonna need a friend
That's the way the cornbread crumbles
That's the way the whole thing ends

Now once you had a hook and ladder
Up into the headless night
And once you had a motorcycle
But you couldn't ride it right

Standing in the doorway crying
Now you're gonna need a friend
That's the way the cornbread crumbles
That's the way the whole thing ends

Someone said something one time
But Daddy didn't talk too loud
People ought to stick together
That's the way to make a crowd

But here you come alone and crying
Now you wanna be my friend
That's the way the cornbread crumbles
That's the way the whole thing ends

Momma's in the beauty parlor
And Daddy's in the baseball pool
Sister's in the drive-in movie
Brother's in the old high school

Now here you come alone and crying
Once, you know, you were my friend
That's the way the cornbread crumbles
That's the way the whole thing ends

Standing in the backdoor crying
Now you wanna be my friend
That's the way the cornbread crumbles
That's the way the whole things ends

Outro/solo:
E|-----------------|
B|-----------------|
G|-5p4---4-5p4---4-|
D|-----5-------5---|
A|-----------------|
e|-----------------|

E|-----------------------------------------|
B|-----------------------------------------|
G|-----------------------------------------|
D|-0-2/5-5-5-5-5-5-5-5---2-2/5-5-5-5-5-5-5-|
A|-----------------------------------------|
e|-----------------------------------------|

E|--------------------------------------------------|
B|------------------------------------------3p1p0---|
G|------------------------------------------------0-|
D|-0-2/5-5-5-5-5-5-5-5---0h2/5-5-5-5-5-4-3----------|
A|--------------------------------------------------|
e|--------------------------------------------------|
            
E|-------------------------------------------------------------|
B|---------------------------------------------------1---------|
G|-----------------2-2/4--0-2-4-4-4-4-4-4\2p0-0------------0---|
D|-0-2/5-5-5-5-5-5-------------------------------1/2---2-2---2-|
A|-------------------------------------------------------------|
e|-------------------------------------------------------------|
    
E|------------------------------------|
B|------------------------------------|
G|-1-1-1-1-1-1-2/-5---4\2-0-----------|
D|--------------------------4-4-4-4-5-|
A|------------------------------------|
e|------------------------------------|

E|-----3/--7---10---12---10---10-----15----15----15----15-------15-------15---15-|
B|-3--------------8----8----8----(0)----12----12----12-------12----12-12------12-|
G|---0---0---0--------------------------------------------12------------------12-|
D|-------------------------------------------------------------------------------|
A|-------------------------------------------------------------------------------|
e|-------------------------------------------------------------------------------|

end on G
Добавлено: 08.12.2013
Другие материалы по этой песне:
  • Аккорды и текст

Страница создана 08.12.2013
http://primanota.ru/gillian-welch/the-way-the-whole-thing-ends-chords.htm
Привет, Гость.
Предлагаем пройти революционный курс по гитаре.
Подарок от PrimaNota.Ru, забирай!