PrimaNota.ru - самый крупный в мире бесплатный архив песенных текстов, аккордов, табулатур и нот


Giles Corey - Guilt Is My Boyfriend - таба, видео

Регистрация Запомнить меня
Войти через:  Facebook Google Twitter Vk Yandex Mail.ru

Giles Corey - Guilt Is My Boyfriend - таба, видео

Печатать
Просмотров: 111
A melancholic number by Giles Corey, that's quite easy to play on acoustic guitar 

Intro/Verse

e|---------------------------------------------------------------------------|
B|---------------------------------------------------------------------------|
G|---------------------------------------------------------------------------|
D|3--3--3-3-3/7-7-7---3--3--3-3-3/7-7-7--------------------------------------|
A|3--3--3-3-3/7-7-7---3--3--3-3-3/7-7-7--------------------------------------|
E|1--1--1-1-1/5-5-5---1--1--1-1-1/5-5-5--------------------------------------|

Chorus (Starts with the chords and enters finger picking)
e|------------------|--------------------------------------------------------|
B|------------------|--------------------------------------------------------|
G|5--5--5-5-5/9-9-9-|-----2------------0------4------------------------------|
D|5--5--5-5-5/9-9-9-|-----2----------2------4---4------2---------------------|
A|3--3--3-3-3/7-7-7-|---3---3------3------2----------3---3-------------------|
E|------------------|-5---------1------------------5--------1----------------|

The song is comprised of these two parts repeated and at
 the halfway point has a distorted wall of noise that fuzzes out the guitar picking.


************************************

| /   slide up
| \   slide down
| h   hammer-on
| p   pull-off
| ~   vibrato
| +   harmonic
| x   Mute note
| b   Bend
| pb  Pre-bend
| br  Bend release
| pbr Pre-bend release
| brb Bend release bend

************************************
Добавлено: 07.06.2015
Другие материалы по этой песне:
  • Аккорды и текст

Страница создана 07.06.2015
http://primanota.ru/giles-corey/guilt-is-my-boyfriend-chords.htm
Привет, Гость.
Предлагаем пройти революционный курс по гитаре.
Подарок от PrimaNota.Ru, забирай!