PrimaNota.ru - самый крупный в мире бесплатный архив песенных текстов, аккордов, табулатур и нот


Gilberto Bebel - Night And Day - таба, видео

Регистрация Запомнить меня
Войти через:  Facebook Google Twitter Vk Yandex Mail.ru

Gilberto Bebel - Night And Day - таба, видео

Печатать
Просмотров: 116
Авторы музыки: Cole Porter
Авторы текста: Cole Porter
From the album Momento on label Ziriguiboom http://en.wikipedia.org/wiki/Momento_(album) 


Play along on youtube at https://www.youtube.com/watch?v=5IHRWwDNwSo

Intro
    Fmaj7      Esus4     Amaj7 
e|---------------------------------------------------------------------------|
B|--1-1---1----0-0----------------2-2---2------------------------------------|
G|--2-2---2----2-2---2--1-1---1---1-1---1------------------------------------|
D|--2-2---2----2-2---2--2-2---2---2-2---2------------------------------------|
A|----------------------0-0--0--0-----0--------------------------------------|
E|--1-1--1--1--0-0--0--------------------------------------------------------|

Verse
   Fmaj7      Esus4     Amaj7 
e|---------------------------------------------------------------------------|
B|--1-1---1----0-0----------------2-2---2------------------------------------|
G|--2-2---2----2-2---2--1-1---1---1-1---1------------------------------------|
D|--2-2---2----2-2---2--2-2---2---2-2---2------------------------------------|
A|----------------------0-0--0--0-----0--------------------------------------|
E|--1-1--1--1--0-0--0--------------------------------------------------------|
Night and day, you are the one
Only you beneath the moon and under the sun

Chorus
  Dmaj7       Dmin(maj7)  Dbmin7    F#7aug5 F#7
e|---------------------------------------------------------------------------|
B|--7-7---7-7--6-6---6-6--5-5---5-5--3-3---2-2-------------------------------|
G|--6-6---6-6--6-6---6-6--4-4---4-4--3-3---3-3-------------------------------|
D|--7-7---7-7--7-7---7-7--6-6---6-6--2-2---2-2-------------------------------|
A|------5----------5----------4----------------------------------------------|
E|---------------------------------------2-----------------------------------|
Whether near to you or far, no matter darling where you are

   Fmaj7      Esus4     Amaj7 
e|---------------------------------------------------------------------------|
B|--1-1---1----0-0----------------2-2---2------------------------------------|
G|--2-2---2----2-2---2--1-1---1---1-1---1------------------------------------|
D|--2-2---2----2-2---2--2-2---2---2-2---2------------------------------------|
A|----------------------0-0--0--0-----0--------------------------------------|
E|--1-1--1--1--0-0--0--------------------------------------------------------|
I think of you night and day




    Fmaj7      Esus4     Amaj7 
Night and day, you are the one
   Fmaj7      Esus4     Amaj7 
Only you beneath the moon and under the sun
Dmaj7       Dmin(maj7)  Dbmin7    F#7aug5 F#7
Whether near to me, or far It's no matter darling where you are
  Fmaj7      Esus4     Amaj7 
I think of you night and day
  Fmaj7      Esus4     Amaj7 
Day and night, why is it so
  Fmaj7      Esus4     Amaj7 
That this longing for you follows wherever I go
Dmaj7       Dmin(maj7)  Dbmin7    F#7aug5 F#7
In the roaring traffic's boom, In the silence of my lonely room
  Fmaj7      Esus4     Amaj7 
I think of you night and day
    Fmaj7      Esus4     Amaj7 
Night and day
    Fmaj7      Esus4     Amaj7 
Under the hide of me there's an oh such a hungry yearning burning inside of me
Dmaj7       Dmin(maj7)  Dbmin7    F#7aug5 F#7
And this torment won't be through, until you let me spend all my life 
  Fmaj7      Esus4     Amaj7 
making love to you…day and night, night and day...
Добавлено: 24.06.2014
Другие материалы по этой песне:

Страница создана 24.06.2014
http://primanota.ru/gilberto-bebel/night-and-day-chords.htm
Привет, Гость.
Предлагаем пройти революционный курс по гитаре.
Подарок от PrimaNota.Ru, забирай!