PrimaNota.ru - самый крупный в мире бесплатный архив песенных текстов, аккордов, табулатур и нот


Gigi - Rindu Rasul - бас-таба, видео

Регистрация Запомнить меня
Войти через:  Facebook Google Twitter Vk Yandex Mail.ru

Gigi - Rindu Rasul - бас-таба, видео

Печатать
Просмотров: 114
Tab by Kukuh Rahmanto
This is my first bass tab..
Please rate..

Tuning : E,A,D,G

Intro :
G|---------------------------------|
D|---------------------------------|
A|---------------------------------|
E|---------------------------------|

Verse 1 :
G|---------------------------------|
D|---------------------------------|
A|------------------6--6—-6-5------|
E|--3—-3—-3-6—-6--6-----------6-5--|

G|---------------------------------|
D|---------------------------------|
A|------------------6--6--6-5------|
E|--3--3--0-1--1--0-----------6-5--|

G|---------------------------------|
D|---------------------------------|
A|------------------6--6—-6-5------|
E|--3—-3—-3-6—-6--6-----------6-5--|

G|---------------------------------|
D|---------------------------------|
A|------------------6--6--6-5------|
E|--3--3--0-1--1--0-----------6-5--|


Chorus :
G|----------------|----------------|
D|----------------|----------------|
A|----------------|----------------|
E|--3--3--0-3-----|--3--3--0-3-----|

G|----------------|----------------|
D|----------------|----------------|
A|----------------|----------------|
E|--3--3--0-3-----|--3--3--0-3h8---|

G|---------------------------------------------|
D|---------------------------------------------|
A|--10--10----8----6--6---5-----3--3---5-------|
E|---------10----8------6---6-5------3----5-3--|

Verse 1 :
G|---------------------------------|
D|---------------------------------|
A|------------------6--6—-6-5------|
E|--3—-3—-3-6—-6--6-----------6-5--|

G|---------------------------------|
D|---------------------------------|
A|------------------6--6--6-5------|
E|--3--3--0-1--1--0-----------6-5--|

G|---------------------------------|
D|---------------------------------|
A|------------------6--6—-6-5------|
E|--3—-3—-3-6—-6--6-----------6-5--|

G|---------------------------------|
D|---------------------------------|
A|------------------6--6--6-5------|
E|--3--3--0-1--1--0-----------6-5--|


Chorus :
G|---------------------------------------------|
D|---------------------------------------------|
A|--10--10----8----6--6---5-----3--3---5-------|
E|---------10----8------6---6-5------3----5-3--|

G|---------------------------------------------|
D|---------------------------------------------|
A|--10--10----8----6--6---5-----3--3---5-------|
E|---------10----8------6---6-5------3----5-3--|

Verse 2 :
G|-------------------------------|-------------------------------|
D|-------------------------------|-------------------------------|
A|----------------6--6--6-6-6-6--|--------------------------3—5--|
E|--3--3--3-3-3-3----------------|--1--1--1-1-1-1-6--6--6-6------|

G|-------------------------------|-------------------------------|
D|-------------------------------|-------------------------------|
A|-------------------------------|--6--6--6-6-6-6-5--5--5-5-5-5--|
E|--3--3--3-3-3-3-5--5--5-5-5-5--|-------------------------------|

G|-------------------------------|-------------------------------|
D|-------------------------------|-------------------------------|
A|----------------6--6--6-6-6-6--|--------------------------3—5--|
E|--3--3--3-3-3-3----------------|--1--1--1-1-1-1-6--6--6-6------|

G|-------------------------------|-------------------------------|
D|-------------------------------|-------------------------------|
A|-------------------------------|--6--6--6-6-6-6-5--5--5-5-5-5--|
E|--3--3--3-3-3-3-5--5--5-5-5-5--|-------------------------------|

Verse 1 :
G|---------------------------------|
D|---------------------------------|
A|------------------6--6—-6-5------|
E|--3—-3—-3-6—-6--6-----------6-5--|

G|---------------------------------|
D|---------------------------------|
A|------------------6--6--6-5------|
E|--3--3--0-1--1--0-----------6-5--|

G|---------------------------------|
D|---------------------------------|
A|------------------6--6—-6-5------|
E|--3—-3—-3-6—-6--6-----------6-5--|

G|---------------------------------|
D|---------------------------------|
A|------------------6--6--6-5------|
E|--3--3--0-1--1--0-----------6-5--|

Chorus :
G|---------------|---------------|
D|---------------|---------------|
A|---------------|---------------|
E|--5--5--5-5-5--|--5--5--5-5-5--|

G|---------------|---------------|
D|---------------|---------------|
A|---------------|---------------|
E|--5--5--5-5-5--|--5--5--5-5-5--|

G|---------------|---------------|
D|---------------|---------------|
A|---------------|---------------|
E|--5--5--5-5-5--|--5--5--5-5-5--|

G|---------------|---------------|
D|---------------|---------------|
A|---------------|---------------|
E|--5--5--5------|---------------|

Verse 2 :
G|-------------------------------|-------------------------------|
D|-------------------------------|-------------------------------|
A|----------------6--6--6-6-6-6--|--------------------------3—5--|
E|--3--3--3-3-3-3----------------|--1--1--1-1-1-1-6--6--6-6------|

G|-------------------------------|-------------------------------|
D|-------------------------------|-------------------------------|
A|-------------------------------|--6--6--6-6-6-6-5--5--5-5-5-5--|
E|--3--3--3-3-3-3-5--5--5-5-5-5--|-------------------------------|

G|-------------------------------|-------------------------------|
D|-------------------------------|-------------------------------|
A|----------------6--6--6-6-6-6--|--------------------------3—5--|
E|--3--3--3-3-3-3----------------|--1--1--1-1-1-1-6--6--6-6------|

G|-------------------------------|-------------------------------|
D|-------------------------------|-------------------------------|
A|-------------------------------|--6--6--6-6-6-6-5--5--5-5-5-5--|
E|--3--3--3-3-3-3-5--5--5-5-5-5--|-------------------------------|

G|-------------------------------|-------------------------------|
D|-------------------------------|-------------------------------|
A|-------------------------------|-------------------------------|
E|-------------------------------|-------------------------------|


That is great song..

Go Indonesian song..


Kukuh a.k.a Little Chilli
Добавлено: 06.03.2012
Другие материалы по этой песне:
  • Аккорды и текст

Страница создана 06.03.2012
http://primanota.ru/gigi/rindu-rasul-chords.htm
Привет, Гость.
Предлагаем пройти революционный курс по гитаре.
Подарок от PrimaNota.Ru, забирай!