PrimaNota.ru - самый крупный в мире бесплатный архив песенных текстов, аккордов, табулатур и нот


Gigi und die Braunen Stadtmusikanten - Idiotenclub - таба, видео

Регистрация Запомнить меня
Войти через:  Facebook Google Twitter Vk Yandex Mail.ru

Gigi und die Braunen Stadtmusikanten - Idiotenclub - таба, видео

Печатать
Просмотров: 79
Уроки эстрадного вокала в Санкт-Петербурге
Title: Idiotenclub
Artist: Gigi und die Braunen Stadtmusikanten
Album: Mediokratie



Track 1: Melodie Intro

E|---------------------|---------------------|---------------------|---------------------|
B|---------------------|---------------------|---------------------|---------------------|
G|---------------------|---------------------|---------------------|---------------------|
D|-2-------------------|-0----2----2----2----|-4----0----0----0----|------0----0---------|
A|------4----4----4----|---------------------|---------------------|-4--------------2----|
E|---------------------|---------------------|---------------------|---------------------|


E|---------------------|---------------------|---------------------|---------------------|
B|---------------------|---------------------|---------------------|---------------------|
G|---------------------|---------------------|---------------------|---------------------|
D|----------------0----|-0----0----2---------|---------------------|-2-------------------|
A|-2----2----4---------|----------------4----|-4----4----2----4----|------4----4----4----|
E|---------------------|---------------------|---------------------|---------------------|


E|---------------------|---------------------|---------------------|---------------------|
B|---------------------|---------------------|---------------------|---------------------|
G|---------------------|---------------------|----------------0----|-0-------------------|
D|-0----2----2----2----|-4--------------1----|-2----4----4---------|------4----2----4----|
A|---------------------|------2----4---------|---------------------|---------------------|
E|---------------------|---------------------|---------------------|---------------------|


E|---------------------|---------------------|
B|---------------------|---------------------|
G|---------------------|---------------------|
D|-4----2----0----2----|-2----0--------------|
A|---------------------|-----------4----0----|
E|---------------------|---------------------|





Track 2: Power Chords

E|---------------------|---------------------|---------------------|---------------------|
B|---------------------|---------------------|---------------------|---------------------|
G|---------------------|---------------------|---------------------|---------------------|
D|-6----6----6----6----|-6----6----6----6----|-7----7--------------|-6-------------------|
A|-4----4----4----4----|-4----4----4----4----|-5----5----0----2----|-4-------------------|
E|---------------------|---------------------|---------------------|---------------------|


Meine Erste Tabulatur. Keine Garantie auf Richtig- & Vollständigkeit =)
Sollte nur zur Hilfe dienen.


Добавлено: 26.06.2016
Другие материалы по этой песне:
  • Аккорды и текст

Страница создана 26.06.2016
http://primanota.ru/gigi-und-die-braunen-stadtmusikanten/idiotenclub-chords.htm
Привет, Гость.
Предлагаем пройти революционный курс по гитаре.
Подарок от PrimaNota.Ru, забирай!