PrimaNota.ru - самый крупный в мире бесплатный архив песенных текстов, аккордов, табулатур и нот


Gigi Dagostino - Baci Abracci - таба, видео

Регистрация Запомнить меня
Войти через:  Facebook Google Twitter Vk Yandex Mail.ru

Gigi Dagostino - Baci Abracci - таба, видео

Печатать
Просмотров: 112
Intro:

0:00 - 0:22

E||-------------------|-------------------|-------------------|
B||-------------------|-------------------|-------------------|
G||---2---2---2---2---|---4---4---4---4---|---7---7---7---7---|
D||-------------------|-------------------|-------------------|
A||-0---0---0---0-----|-2---2---2---2-----|-5---5---5---5-----|
E||-------------------|-------------------|-------------------|

E||-------------------|-------------------|-------------------|
B||-------------------|-------------------|-------------------|
G||---2---2---2---2---|---10---10---9---9-|-------------------|
D||-------------------|-------------------|-------------------|
A||-0---0---0---0-----|-8----8----7---7---|-------------------|
E||-------------------|-------------------|-------------------|

With another guitar/keyboard

E||-------------------|-------------------|-------------------|
B||-5-----------------|-6-----------------|-10----------------|
G||-------------------|-------------------|-------------------|
D||-------------------|-------------------|-------------------|
A||-------------------|-------------------|-------------------|
E||-------------------|-------------------|-------------------|

E||-------------------|-------------------|-------------------|
B||-5-----------------|-6---------5-------|-------------------|
G||-------------------|-------------------|-------------------|
D||-------------------|-------------------|-------------------|
A||-------------------|-------------------|-------------------|
E||-------------------|-------------------|-------------------|

0:23 - 1:23

E||-------------------|-------------------|-------------------|
B||-5---------6----5--|-4----------5----4-|-3---------5-----3-|
G||-------------------|-------------------|-------------------|
D||-------------------|-------------------|-------------------|
A||-------------------|-------------------|-------------------|
E||-------------------|-------------------|-------------------|

E||-------------------|-------------------|-------------------|
B||-5-2-0-2-----------|-5-2-0-2-----------|-------------------|
G||-------------------|-------------------|-------------------|
D||-------------------|-------------------|-------------------|
A||-------------------|-------------------|-------------------|
E||-------------------|-------------------|-------------------|

1:24 - 2:50

E||-------------------|-------------------|-------------------|
B||-------------------|-------------------|-------------------|
G||---2---2---2---2---|---4---4---4---4---|---7---7---7---7---|
D||-------------------|-------------------|-------------------|
A||-0---0---0---0-----|-2---2---2---2-----|-5---5---5---5-----|
E||-------------------|-------------------|-------------------|

E||-------------------|-------------------|-------------------|
B||-------------------|-------------------|-------------------|
G||---2---2---2---2---|---10---10---9---9-|-------------------|
D||-------------------|-------------------|-------------------|
A||-0---0---0---0-----|-8----8----7---7---|-------------------|
E||-------------------|-------------------|-------------------|


1:48 - 2:25

E||-13---17-16-13-----|
B||-------------------|
G||-------------------|
D||-------------------|
A||-------------------|
E||-------------------|

E||-12----------------|-13----------------|-17----------------|
B||-------------------|-------------------|-------------------|
G||-------------------|-------------------|-------------------|
D||-------------------|-------------------|-------------------|
A||-------------------|-------------------|-------------------|
E||-------------------|-------------------|-------------------|

E||-12----------------|-13---17-16-14-----|-17----------------|
B||-------------------|-------------------|-------------------|
G||-------------------|-------------------|-------------------|
D||-------------------|-------------------|-------------------|
A||-------------------|-------------------|-------------------|
E||-------------------|-------------------|-------------------|

2:33 - 2:50

E||-4-----------------|-4-----------------|---4----------4----|
B||-------------------|---4---------------|-4-------------4---|
G||-------------------|-------------------|-------------------|
D||-------------------|-------------------|-------------------|
A||-------------------|-------------------|-------------------|
E||-------------------|-------------------|-------------------|


2:50 - 3:36

E||-------------------|-------------------|-------------------|
B||-5---------6----5--|-4----------5----4-|-3---------5-----3-|
G||-------------------|-------------------|-------------------|
D||-------------------|-------------------|-------------------|
A||-------------------|-------------------|-------------------|
E||-------------------|-------------------|-------------------|

E||-------------------|-------------------|-------------------|
B||-5-2-0-2-----------|-5-2-0-2-----------|-------------------|
G||-------------------|-------------------|-------------------|
D||-------------------|-------------------|-------------------|
A||-------------------|-------------------|-------------------|
E||-------------------|-------------------|-------------------|

3:25 - 3:36

E||-------------------|-------------------|-------------------|
B||-------------------|-------------------|-------------------|
G||---2---2---2---2---|---4---4---4---4---|---7---7---7---7---|
D||-------------------|-------------------|-------------------|
A||-0---0---0---0-----|-2---2---2---2-----|-5---5---5---5-----|
E||-------------------|-------------------|-------------------|

E||-------------------|-------------------|-------------------|
B||-------------------|-------------------|-------------------|
G||---2---2---2---2---|---10---10---9---9-|-------------------|
D||-------------------|-------------------|-------------------|
A||-0---0---0---0-----|-8----8----7---7---|-------------------|
E||-------------------|-------------------|-------------------|



Добавлено: 21.07.2012
Другие материалы по этой песне:
  • Аккорды и текст

Страница создана 21.07.2012
http://primanota.ru/gigi-dagostino/baci-abracci-chords.htm
Привет, Гость.
Предлагаем пройти революционный курс по гитаре.
Подарок от PrimaNota.Ru, забирай!