PrimaNota.ru - самый крупный в мире бесплатный архив песенных текстов, аккордов, табулатур и нот


Gideon - Unworthy - таба, видео

Регистрация Запомнить меня
Войти через:  Facebook Google Twitter Vk Yandex Mail.ru

Gideon - Unworthy - таба, видео

Печатать
Просмотров: 75
Tuning: Drop A#

##Intro##
e-|----------------------------------------------------------------|
B-|----------------------------------------------------------------|
G-|----------------------------------------------------------------|
D-|-2-1-----2~~1-0-1~~---7~~--6\7/6~~2-1-----2~~1-0-1~~---0~~---0~~|
A-|-2-1-000-2~~1-0-1~~0005~~004\5/4~~2-1-000-2~~1-0-1~~0000~~0000~~|
E-|-2-1-000-2~~1-0-1~~000---00-------2-1-000-2~~1-0-1~~0000~~0000~~|
PM      ...           ...   ..           ...           ...   ...

e-|-0~~~~----------------|
B-|-0~~~~----------------|
G-|-0~~~~----------------|
D-|------4-3-0-1--4-3-1--|
A-|------4-3-0-1--4-3-1--|
E-|------4-3-0-1--4-3-1--|

##Verse##
e-|-----------------------------|-----------|---------------|
B-|-------------------(1st&3rd)-|-(2nd end)-|-(4th end)-----|
G-|-----------------------------|-----------|---------------|
D-|-0-1-0-1---0--0-0--4-3-1-----|-3333111---|----------2----|
A-|-0-1-0-1-000000000-4-3-1-----|-3333111---|-----3-----3---|
E-|-0-1-0-1-000000000-4-3-1-----|-3333111---|-0-5--5-0---0--|
PM          .. .. . .

e-|--------------------------|
B-|--------------------------|
G-|--------------------------|
D-|-----0-------0------------|
A-|---00000---00000-1-4-3-1--|
E-|-3-00000-3-00000-1-4-3-1--|
PM    .. ..   .. .. . . . .  

LET THIS FIRE BURN!

##Breakdown##
e-|--------------------------------------------|
B-|--------------------------------------------|
G-|--------------------------------------------|
D-|--------------------------------------------|
A-|-0000--0000--000-000--00000--00-0-----------|
E-|-0000--0000--000-000--00000--00-0-00000000--|
PM  ....  ....  ... ...  .....  .. . 

e-|----------------------------------------|
B-|----------------------------------------|
G-|----------------------------------------|
D-|----------------------------------------|
A-|-0000--0000--000000--0-0--000-000--000--|
E-|-0000--0000--000000--0-0--000-000--000--|(pickslide 2nd time)
PM  ....  ....  ......  . .  ... ...  ...

##Chorus##
e-|-----------------------------------------------------|---------|
B-|-----------------------------------------------------|---------|
G-|-----------------------------------------------------|-(2nd x)-|
D-|-10101010101010101010101010101010-00000000-33333333--|---------|
A-|-8-8-8-8-8-8-8-8-8-8-8-8-8-8-8-8--00000000-33333333--|---------|
E-|-8-8-8-8-8-8-8-8-8-8-8-8-8-8-8-8--00000000-33333333--|-0-------|
PM                                                        .

##Verse##
e-|-----------------------------|-----------|---------------|
B-|-------------------(1st&3rd)-|-(2nd end)-|-(4th end)-----|
G-|-----------------------------|-----------|---------------|
D-|-0-1-0-1---0--0-0--4-3-1-----|-3333111---|----------2----|
A-|-0-1-0-1-000000000-4-3-1-----|-3333111---|-----3-----3---|
E-|-0-1-0-1-000000000-4-3-1-----|-3333111---|-0-5--5-0---0--|
PM          .. .. . .

##Chorus##
e-|-----------------------------------------------------|---------|
B-|-----------------------------------------------------|---------|
G-|-----------------------------------------------------|-(2nd x)-|
D-|-10101010101010101010101010101010-00000000-33333333--|---------|
A-|-8-8-8-8-8-8-8-8-8-8-8-8-8-8-8-8--00000000-33333333--|---------|
E-|-8-8-8-8-8-8-8-8-8-8-8-8-8-8-8-8--00000000-33333333--|-0-------|
PM                                                        .

##Breakdown## (Guitar 1)
e-|----------------------------------------------------------------|
B-|----------------------------------------------------------------|
G-|----------------------------------------------------------------|
D-|-2-1-----2~~1-0-1~~---7~~--6\7/6~~2-1-----2~~1-0-1~~---0~~---0~~|
A-|-2-1-000-2~~1-0-1~~0005~~004\5/4~~2-1-000-2~~1-0-1~~0000~~0000~~|
E-|-2-1-000-2~~1-0-1~~000---00-------2-1-000-2~~1-0-1~~0000~~0000~~|
PM      ...           ...   ..           ...           ...   ...

(Guitar 2)
e-|----------------------------------------------------------|
B-|----------------------------------------------------------|
G-|----------------------------------------------------------|
D-|----------------------------------------------------------|
A-|-0000--0000--000-000-------------0000--0000--000000--0-0--|
E-|-0000--0000--000-000-------------0000--0000--000000--0-0--|
PM  ....  ....  ... ...             ....  ....  ......  . .  

e-|------------------------------------|
B-|------------------------------------|
G-|------------------------------------|
D-|------------------------------------|
A-|-0000--0000--000-000--00000--00-0---|
E-|-0000--0000--000-000--00000--00-0---|
PM  ....  ....  ... ...  .....  .. . 

e-|----------------------------------------|
B-|----------------------------------------|
G-|----------------------------------------|
D-|----------------------------------------|
A-|-0000--0000--000000--0-0--000-000--000--|
E-|-0000--0000--000000--0-0--000-000--000--|
PM  ....  ....  ......  . .  ... ...  ...

LET THIS FIRE BURN!

e-|--------------------------------------------|
B-|--------------------------------------------|
G-|--------------------------------------------|
D-|--------------------------------------------|
A-|-0000--0000--000-000--00000--00-0-----------|
E-|-0000--0000--000-000--00000--00-0-00000000--|
PM  ....  ....  ... ...  .....  .. . 

e-|----------------------------------------|
B-|----------------------------------------|
G-|----------------------------------------|
D-|----------------------------------------|
A-|-0000--0000--000000--0-0--000-000--000--|
E-|-0000--0000--000000--0-0--000-000--000--|
PM  ....  ....  ......  . .  ... ...  ...

End.
Добавлено: 24.11.2013
Вам также может быть интересно:
Другие материалы по этой песне:
  • Аккорды и текст

Страница создана 24.11.2013
http://primanota.ru/gideon/unworthy-chords.htm
Привет, Гость.
Предлагаем пройти революционный курс по гитаре.
Подарок от PrimaNota.Ru, забирай!