PrimaNota.ru - самый крупный в мире бесплатный архив песенных текстов, аккордов, табулатур и нот


Gideon - Kingdom Minded - таба, видео

Регистрация Запомнить меня
Войти через:  Facebook Google Twitter Vk Yandex Mail.ru

Gideon - Kingdom Minded - таба, видео

Печатать
Просмотров: 99
Artist: Gideon
Song: Kingdom Minded
Album: Costs
http://www.facebook.com/GideonAL

Tuning: Drop A#

##Intro##
e-|-----------------|
B-|-----------------|
G-|-----------------|
D-|-----------------|
A-|-----------------|
E-|-00-00-0-00-00-0-|

e-|----------------------------------------------------|
B-|----------------------------------------------------|
G-|----------------------------------------------------|
D-|----------------------------------------------------|---(x2)
A-|--------------4--4--2-------------------------------|
E-|-0-8~0~8~0-12/-5--5--3--0-8~0-8~0-8/00-00-0-00-00-0-|

##Verse##  
e-|--------------------------------------------------------------|
B-|--------------------------------------------------------------|
G-|--------------------------------------------------------------|
D-|--1-------------------1--------------1------------------------|---(X3)
A-|-01------------------01-------4--4--01---------------4--4--2--|
E-|-01--0-0-0-0-0-0-0-0-01--0-0-0-5----01--0-0-0-0-0-0-0-5--5--3-|
    .                   .              .

##Breakdown##
e-|--------------|
B-|--------------|
G-|--------------|
D-|------1-----1-|
A-|-000001--0001-|
E-|-000001--0001-|
    .....   ...
e-|----------------------------------------------------------------|
B-|----------------------------------------------------------------|
G-|----------------------------------------------------------------|
D-|------1-----1----1--1-----1-------1-----1-----4-3----4-3----1-3-|---(X2)
A-|-000001--0001--001-01--0001--000001--0001--00-4-3-00-4-3-00-1-3-|
E-|-000001--0001--001-01--0001--000001--0001--00-4-3-00-4-3-00-1-3-|
    .....   ...   ..  .   ...   .....   ...   ..     ..     ..

e-|-------------------|
B-|-------------------|
G-|-------------------|
D-|-4-3----4-3----1-3-|
A-|-4-3-00-4-3-00-1-3-|
E-|-4-3-00-4-3-00-1-3-|
        ..     ..

##Verse##
e-|--------------------------------------------------------------|
B-|--------------------------------------------------------------|
G-|--------------------------------------------------------------|
D-|--1-------------------1--------------1------------------------|
A-|-01------------------01-------4--4--01---------------4--4--2--|
E-|-01--0-0-0-0-0-0-0-0-01--0-0-0-5----01--0-0-0-0-0-0-0-5--5--3-|
    .                   .              .

##Breakdown##
e-|--------------|
B-|--------------|
G-|--------------|
D-|------1-----1-|
A-|-000001--0001-|
E-|-000001--0001-|
    .....   ...
e-|----------------------------------------------------------------|
B-|----------------------------------------------------------------|
G-|----------------------------------------------------------------|
D-|------1-----1----1--1-----1-------1-----1-----4-3----4-3----1-3-|---(X4)
A-|-000001--0001--001-01--0001--000001--0001--00-4-3-00-4-3-00-1-3-|
E-|-000001--0001--001-01--0001--000001--0001--00-4-3-00-4-3-00-1-3-|
    .....   ...   ..  .   ...   .....   ...   ..     ..     ..

e-|-------------------|
B-|-------------------|
G-|-------------------|
D-|-4-3----4-3----1-3-|
A-|-4-3-00-4-3-00-1-3-|
E-|-4-3-00-4-3-00-1-3-|
        ..     ..

##Break##
e-|------------------------------------------|
B-|------------------------------------------|
G-|------------------------------------------|
D-|------------------------------------------|
A-|-0--(Play as many x's as needed)----------|
E-|-0--------------------------------1~~01-0-|
    .

e-|----------------------------------------------------|
B-|----------------------------------------------------|
G-|----------------------------------------------------|
D-|-1-0--1-0-0-0--1-0--0----1-0--1-0-0-0--1-0----------|---(x4)
A-|-1-0--1-0-0-0--1-0--0----1-0--1-0-0-0--1-0----------|
E-|-1-0--1-0-0-0--1-0--0----1-0--1-0-0-0--1-0--1~~01-0-|

##Outro##
e-|----------------------------------------------------|
B-|----------------------------------------------------|
G-|----------------------------------------------------|
D-|----------------------------------------------------|---(x2)
A-|--------------4--4--2-------------------------------|
E-|-0-8~0~8~0-12/-5--5--3--0-8~0-8~0-8/00-00-0-00-00-0-|


End. Enjoy.
Добавлено: 05.07.2013
Вам также может быть интересно:
Другие материалы по этой песне:
  • Аккорды и текст

Страница создана 05.07.2013
http://primanota.ru/gideon/kingdom-minded-chords.htm
Привет, Гость.
Предлагаем пройти революционный курс по гитаре.
Подарок от PrimaNota.Ru, забирай!