PrimaNota.ru - самый крупный в мире бесплатный архив песенных текстов, аккордов, табулатур и нот


Giant - Stay - текст песни, таба, видео

Регистрация Запомнить меня
Войти через:  Facebook Google Twitter Vk Yandex Mail.ru

Giant - Stay - текст песни, таба, видео

Печатать
Просмотров: 98
Авторы: Dann Huff, Van Stephenson, Alan Pasqua

----------------------------------------------------------------
STAY - Giant
-----------------------------------------------------------------
Album - Time To Burn

Tabbed by: Beanboy

Tuning: standard



Intro

e|---------------------------------------------------------------|
B|-----5/7-5--------4h5p4----------4h5p4-----4h5p4---------------|
G|-6-6-4/6-4-6--6\4-4---4-4--4\2-2-4---4-4-4-4---4-4/6-----------|
D|-6-6-------6--6\4-------4--4\2-2-------4-4-------4/6-----------|
A|---------------------------------------------------------------|
E|---------------------------------------------------------------|

Verse

e|---------------------------------------------------------------|
B|-----------------..--------------------------------------------|
G|-6--4--2--4--2---44--6--4--2--4--6------------2----------------|
D|-6--4--2--4--2---44--6--4--2--4--6-----2---4--2----------------|
A|-4--2--0--2--4---22--4--2--0--2--4--2h4-4--4--0----------------|
E|-------------------------------------------2--0----------------|

Chorus

e|---------------------------------------------|
B|-------..----------------------10-9-7-9------|
G|-4-6-2-99-4-6-2--7-7\6-6\2--9--9--9-9-9------|
D|-4-6-2-99-4-6-2--7-7\6-6\2--9----------------|
A|-2-4-0-77-2-4-0--5-5\4-4\0--7----------------|
E|---------------------------------------------|

e|---------------------------------------------|
B|-------..------------------------------------|
G|-4-6-2-99-4-6-2--7---7\6---------------------|
D|-4-6-2-99-4-6-2--7---7\6---------------------|
A|-2-4-0-77-2-4-0--5---5\4---------------------|
E|---------------------------------------------|

Verse 2

e|----------------------------------------------------------------|
B|-..--------------------..---------------------------------------|
G|-44----6--4--2--4--2---44--6--4--2--4--6------------2-----------|
D|-44----6--4--2--4--2---44--6--4--2--4--6-----2---4--2-----------|
A|-22----4--2--0--2--4---22--4--2--0--2--4--2h4-4--4--0-----------|
E|-------------------------------------------------2--0-----------|


Chorus 2

e|---------------------------------------------|
B|-------..----------------------10-9-7-9------|
G|-4-6-2-99-4-6-2--7-7\6-6\2--9--9--9-9-9------|
D|-4-6-2-99-4-6-2--7-7\6-6\2--9----------------|
A|-2-4-0-77-2-4-0--5-5\4-4\0--7----------------|
E|---------------------------------------------|

e|---------------------------------------------|
B|-------..------------------------------------|
G|-4-6-2-99-4-6-2--7---7\6\5\4-7\6-9-----------|
D|-4-6-2-99-4-6-2--7---7\6\5\4-7\6-9-----------|
A|-2-4-0-77-2-4-0--5---5\4\3\2-5\4-7-----------|
E|---------------------------------------------|


Verse (Under Solo)


e|------------------------------------------------------------------|
B|-..-------------------..------------------------------------------|
G|-44---6--4--2--4--2---44--6--4--2--4--6---------------2--------2--|
D|-44---6--4--2--4--2---44--6--4--2--4--6-----2---4-----2--4-----2--|
A|-22---4--2--0--2--4---22--4--2--0--2--4--2h4-4--4-----0--4-----0--|
E|------------------------------------------------2-2-4-0--2-2-4-0--|

Chorus till end

e|---------------------------------------------|
B|-------..----------------------10-9-7-9------|
G|-x-6\2-99-4-6-2--7-7\6-6\2--9--9--9-9-9------|
D|-x-6\2-99-4-6-2--7-7\6-6\2--9----------------|
A|-x-4\0-77-2-4-0--5-5\4-4\0--7----------------|
E|---------------------------------------------|

e|---------------------------------------------|
B|-------..------------------------------------|
G|-4-6-2-99-4-6-2--7---------------------------|
D|-4-6-2-99-4-6-2--7---------------------------|
A|-2-4-0-77-2-4-0--5---------------------------|
E|---------------------------------------------|




| /  slide up
| \  slide down
| h  hammer-on
| p  pull-off
| ~  vibrato
| +  harmonic
| x  Mute note
| .  Stacatto note
Добавлено: 13.07.2013
Другие материалы по этой песне:

Страница создана 07.04.2012
http://primanota.ru/giant/stay-chords.htm
Привет, Гость.
Предлагаем пройти революционный курс по гитаре.
Подарок от PrimaNota.Ru, забирай!