PrimaNota.ru - самый крупный в мире бесплатный архив песенных текстов, аккордов, табулатур и нот


Giant - Im A Believer - текст песни, таба, видео

Регистрация Запомнить меня
Войти через:  Facebook Google Twitter Vk Yandex Mail.ru

Giant - Im A Believer - текст песни, таба, видео

Печатать
Просмотров: 191
Уроки эстрадного вокала в Санкт-Петербурге
Author/Artist: Giant
Title: I'm a believer solo
Album: Last of the Runaways
Transcribed by: Geoff Lea
Email: Geosouthuk@aol.com

As Giant have released a new album III i decided to trawl thru some of the old stuff and this is one kicking solo
Trem slurs , bends and high speed fluid legato sextuplets to end mmmmm i love real guitar players :-)
The end run is somewhat reminiscent of a paul gilbert exercise from his Intense rock video,  have fun with this 

-------------------------------------------9-14-9----------12-9---------------
-14b15---------12-17-15-14-12-10-9----9-10--------10-9-10-------12-10-9-------
------------14----------------------------------------------------------11----
---------14-------------------------------------------------------------------
------------------------------------------------------------------------------
------------------------------------------------------------------------------
                                                                              

-----------------------------------------19-17--------19b21--17-19-17-----15--
------------------------8-10----15-14-----------17-19-----------------19------
-10---------------------------------------------------------------------------
----12-11-9-------------------------------------------------------------------
------------12-11-9-----------------------------------------------------------
------------------------------------------------------------------------------
                                                                              

-17--19-17-15-----------17-15-14----------17-15-14----------------------------
--------------19-17-15-----------17-15-14----------17-15-14-------------------
------------------------------------------------------------17-16-14----------
---------------------------------------------------------------------17-16----
------------------------------------------------------------------------------
------------------------------------------------------------------------------
                                                                              

------------------------------------------------------------------------------
------------------------------------------------------------------------------
------------------------------------------------------------------------------
-14---------------------------------------------------------------------------
----17-15-14------------------------------------------------------------------
-------------17-\-------------------------------------------------------------
Добавлено: 22.07.2012
Вам также может быть интересно:
Другие материалы по этой песне:
  • Аккорды и текст

Страница создана 26.06.2012
http://primanota.ru/giant/im-a-believer-chords.htm
Привет, Гость.
Предлагаем пройти революционный курс по гитаре.
Подарок от PrimaNota.Ru, забирай!