PrimaNota.ru - самый крупный в мире бесплатный архив песенных текстов, аккордов, табулатур и нот


Giant Squid - Throwing A Donner Party At Sea Physeter Catodon - бас-таба, видео

Регистрация Запомнить меня
Войти через:  Facebook Google Twitter Vk Yandex Mail.ru

Giant Squid - Throwing A Donner Party At Sea Physeter Catodon - бас-таба, видео

Печатать
Просмотров: 95
Уроки эстрадного вокала в Санкт-Петербурге
-----------------------------------------------------------------------------
THROWING A DONNER PARTY AT SEA(PHYSETER CATODON) - Giant Squid
-----------------------------------------------------------------------------

Tabbed By : The Darth Trainman
e-mail: thedarthtrainman@google.com

Tuning: Standard, although I think it might be ADGCF on the album. You can also 
play this on a regular 4-string, tuned to standard (Only difference is in Riff C.)
Riff A: x8
G|---------------|
D|---------------|
A|---------------|
E|-7---7-10-7-10-|
B|---------------|


0:06
Riff B:
G|---------------|
D|---------------|
A|---------------|
E|-7---7-10-7-10-|
B|---------------|      
x4
G|-------------|
D|-------------|
A|-5---5-9-7-9-|
E|-------------|
B|-------------|
x4
G|-------------|
D|-------------|
A|-------------|
E|-6---6-8-6-8-|
B|-------------|
x4


0:16
Riff C:
G|---------------------------------------------|
D|---------------------------------------------|
A|---------------------------------------------|
E|-7-----6-----------------------------------6-|
B|-------------9-----7-----5-----7-----9-------|

Riff B 1x

Riff C 1x

Riff B 1x

0:41
Riff D:
G|---------------------------------------------|
D|---------------------------------------------|
A|-5-----4-----------------------------------4-|
E|-------------7-----6-----4-----6-----7-------|
B|---------------------------------------------|

Riff E:
G|-------------|
D|-------------|
A|-5---5-5-5-5-|
E|-------------|
B|-------------|
x4
G|-------------|
D|-4---4-4-4-4-|
A|-------------|
E|-------------|
B|-------------|
x4
G|-------------|
D|-------------|
A|-4---4-4-4-4-|
E|-------------|
B|-------------|
x4

Riff D x1

Riff E x1

0:58
Riff F:
G|-------------------------|
D|-------------------------|
A|-5-----5-----5---5---5---|
E|-------------------------|
B|-------------------------|
x2
G|-------------------------|
D|-4-----4-----4---4---4---|
A|-------------------------|
E|-------------------------|
B|-------------------------|
x2
1:05
Bass Interlude
G|---------------------------------------------------|
D|---------------------------0------4--5--4--3--2----|
A|-2--1-----2-----1---1--12-----2----------5--4--3---|
E|------32-----3----3--3-----------------------------|
B|---------------------------------------------------|

G|-------------------------------------------3-3333--|
D|---------------------------0------4--5-5555--------|
A|-2--1-----2-----1---1--12-----2--------------------|
E|------32-----3----3--3-----------------------------|
B|---------------------------------------------------|

1:18
Chorus:
G|-------------------------------------------3-3333-|
D|----------------------------0-----4-45-5555-------|
A|-2-2222------2-22221-11112-----2------------------|
E|-------2-2222-------------------------------------|
B|--------------------------------------------------|
x4



Verse:
G|------------------------------------------------|
D|------------------------------------------------|
A|-------------5-55555-5555-----------------------|
E|-7-77775-5555------------6--6--6--6--6--6--6--6-|
B|------------------------------------------------|
x4

2:09
Bass Interlude
G|-------------------------------------------3-3333--|
D|---------------------------0------4--5-5555--------|
A|-2--1-----2-----1---1--12-----2--------------------|
E|------32-----3----3--3-----------------------------|
B|---------------------------------------------------|

2:16
Verse
Chorus

3:07:
G|-----------------------------------|
D|-----------------5---4~--5---7---9-|
A|------6-5~---3---------------------|
E|-7--7------------------------------|
B|-----------------------------------|

3:17
Riff A x8
Riff B x1
Riff C x1
Riff B x1
Riff C x1
Riff B x1
Riff D x1
Riff E x1
Riff D x1
Riff E x1
Riff F x1

4:22
Riff G:
G|---------------------------------------------------|
D|---------------4-44444-4444------------------------|
A|-2-22222-2-2-2-------------------------------------|
E|---------------------------6-66666-6-6-6-66666-6-6-|
B|---------------------------------------------------|

Riff F x1
Riff G x1
Riff F x1
Riff G x1
Riff F x1

5:01 
Bass Interlude
G|-------------------------------------------3-3333--|
D|---------------------------0------4--5-5555--------|
A|-2--1-----2-----1---1--12-----2--------------------|
E|------32-----3----3--3-----------------------------|
B|---------------------------------------------------|

5:08
Chorus

G|---------------|
D|---------------|
A|-------------5-|
E|-7-77775-5555--|
B|---------------|

| /  slide up
| \  slide down
| h  hammer-on
| p  pull-off
| ~  vibrato
| +  harmonic
| x  Mute note
===============================================================================
Добавлено: 04.06.2012
Вам также может быть интересно:
Другие материалы по этой песне:
  • Аккорды и текст

Страница создана 04.06.2012
http://primanota.ru/giant-squid/throwing-a-donner-party-at-sea-physeter-catodon-chords.htm
Привет, Гость.
Предлагаем пройти революционный курс по гитаре.
Подарок от PrimaNota.Ru, забирай!