PrimaNota.ru - самый крупный в мире бесплатный архив песенных текстов, аккордов, табулатур и нот


Gianna Nannini - America - текст песни, бас-таба, видео

Регистрация Запомнить меня
Войти через:  Facebook Google Twitter Vk Yandex Mail.ru

Gianna Nannini - America - текст песни, бас-таба, видео

Печатать
Просмотров: 89
Авторы музыки: Mauro Paoluzzi
Авторы текста: Gianna Nannini
-------------------------------------------------------------------------------
                             AMERICA - GIANNA NANNINI
-------------------------------------------------------------------------------

Artista: Gianna Nannini
Canzone: America
Accordatura Standard E(mi) A(la) D(re) G(sol)
Tab: Danko Cardi

 Per qualsiasi considerazione mi trovate su Fb (Danko Cardi)
        

VERSI
|-----------------|
|-----------------|
|--000-55-777-55--| X8
|-----------------|

PONTE
|------------------|---------------------|---------------|
|.-----------------|--------------------.|---------------|
|.--555-5-7--------|--------------------.|---------------|
|-----------555-5--|---00-2-00--00-2-00--|--55555555/12--| 

RITORNELLO
|----------------------------------------------|
|----------------------------------------------|
|----------------------------00-0-00--00-0-00--| X 6
|--00-0-00--00-0-00--00-0-00-------------------| 


|-----------------|------------------------|
|-----------------|---------------7-797-7--|
|--000-55-777-55--|--000-55-777-79-----9---|
|-----------------|------------------------|

RIPETERE VERSI

RIPETERE PONTE

RIPETERE RITORNELLO

RIPETERE VERSI FINO ALLA FINE

| /  slide up
| \  slide down
| h  hammer-on
| p  pull-off
| ~  vibrato
| +  harmonic
| x  Mute note
===============================================================================
Добавлено: 06.12.2015
Другие материалы по этой песне:
  • Аккорды и текст

Страница создана 09.07.2012
http://primanota.ru/gianna-nannini/america-chords.htm
Привет, Гость.
Предлагаем пройти революционный курс по гитаре.
Подарок от PrimaNota.Ru, забирай!