PrimaNota.ru - самый крупный в мире бесплатный архив песенных текстов, аккордов, табулатур и нот


Ghoul - Numbskull - текст песни, таба, видео

Регистрация Запомнить меня
Войти через:  Facebook Google Twitter Vk Yandex Mail.ru

Ghoul - Numbskull - текст песни, таба, видео

Печатать
Просмотров: 116
        

Band: Ghoul (USA)
Album: Maniaxe
Song: Numbskull

Version 1.0 – 28/9/2005


Code: 
. - palm mute           / - slide up to 
\ - slide down to       x – Staccato 
h - hammer on           p - pull off 
, - slight palm mute    () - ghost note, sustained note 
" - tremolo note        <> - Trill 
L – left channel only   R – right channel only 
* - see comment 

Suffixes for bend 
f - full bend       h - half bend 
q - quarter bend    t - tap bend 
^ - Hold bend       r - release bend 
~ - vibrato bend 

Suffixes for harmonic 
ph - pinched harmonic   n – natural/artificial harmonic 


THIS ONE GOES OUT TO GHOUL. KEEP THE BRUTALITY FLOWING MATE!!!!

Check out Doomish.Com With more
Doom/Death/Blackmetal Tabs,Metal news, Reviews, Articles
http://www.doomish.com

Tuning D G C F A D

Riff 1 (0:00) play 8 times
[intro]
|-----|----------------------------|
|-----|----------------------------|
|-----|----------------------------|
|-----|-----------------5----3-----|
|-5-5-|-4-4-4-4-4-4-4-4-3----1--5--|
|-3-3-|-2-2-2-2-2-2-2-2----2----3--|
  . .     . . . . . . .    .

Riff 2 (0:24)
                                  [x2]             [x1]
|-----------------------------------------|-------------|
|-----------------------------------------|-------------|
|-----------------------------------------|-------------|
|--------------------------7--------------|-------------|
|-5--5-5-8-8--5-5-4-4--5-5-5--5-5-8-5--4--|-4-4-4-4-4-4-|
|-3--3-3-6-6--3-3-2-2--3-3----3-3-6-3--2--|-2-2-2-2-2-2-|
     . .      . .      . . .  . .           . . . . . .

Riff 1 x 1 (0:35)
Riff 2 x 1 (0:59)

Riff 3 (1:10) play 4 times
|-----------------|
|-----------------|
|-----------------|
|-----------------|
|-5-----8-8-4-----|
|-33"---6-6-22"---|
  .          .

Riff 4 (1:29) play 4 times
                  [play twice on last time]
|-------------|------------------------------|
|-------------|------------------------------|
|-------------|------------------------------|
|-------------|-----5------------------------|
|-------------|-----3---4-----5---4-----8--5-|
|-6"----3"----|-2-2---2-2-2-2-3-2-2-2-2-6--3-|
  .     .       . .   .   . .   .   . .

Riff 3 x 1 (1:51)

Fill 1 (2:08) play twice 
|------------| 
|------------| 
|------------| 
|------------| 
|-2---5---8\-| 
|-0---3---6\-|

Riff 5 (2:10) play 4 times
|--------------------------------------------------------------|
|--------------------------------------------------------------|
|--------------------------------------------------------------|
|-----5-----------------------------5-----------------------4~-|
|-----3---4-----5---4-----8--5------3---4-----5---4-----3-1----|
|-2-2---2-2-2-2-3-2-2-2-2-6--3--2-2---2-2-2-2-3-2-2-2-2--------|
  . .   .   . .   .   . .       . .   .   . .   .   . . . .

Riff 6a (2:19)
|-------------------------------------------------------------|
|-------------------------------------------------------------|
|-------------------------------------------------------------|
|-4-4-4-4-4-4-----------5-5-5-5-----5-------------------------|
|-2-2-2-2-2-2---3-3-3-3-3-3-3-3-----3---4-----5---4-----8--5--|
|-------------\-1-1-1-1---------2-2---2-2-2-2-3-2-2-2-2-6--3--|
    . . . . .     . . .   . . . . .   .   . .   .   . .

Riff 6b (2:24)
|-------------------------------------------------------------|
|-------------------------------------------------------------|
|-------------------------------------------------------------|
|-4-4-4-4-4-4-----------------------5-------------------------|
|-2-2-2-2-2-2---3-3-3-3-5-5-5-5-----3---4-----5---4-----8--5--|
|-------------\-1-1-1-1-3-3-3-3-2-2---2-2-2-2-3-2-2-2-2-6--3--|
    . . . . .     . . .   . . . . .   .   . .   .   . .

Drum solo (2:29)

Riff 7 (2:34) play 8 times
|-----------------|
|-----------------|
|-----------------|
|-----------------|
|-----2"--1"------|
|-3"----------1"--|

Riff 7 (2:53) play 8 times
|------------------|
|------------------|
|------------------|
|-6\5---5\4---4\2--|
|-4\3---3\2---2\1--|
|-----0-----0------|
      .     .

Riff 1 x 1 (3:03)
Riff 2 x 1 (3:13)
End
Добавлено: 03.06.2012
Вам также может быть интересно:
Другие материалы по этой песне:
  • Аккорды и текст

Страница создана 03.06.2012
http://primanota.ru/ghoul/numbskull-chords.htm
Привет, Гость.
Предлагаем пройти революционный курс по гитаре.
Подарок от PrimaNota.Ru, забирай!