PrimaNota.ru - самый крупный в мире бесплатный архив песенных текстов, аккордов, табулатур и нот


Ghoti Hook - Spice Drops - таба, бас-таба, видео

Регистрация Запомнить меня
Войти через:  Facebook Google Twitter Vk Yandex Mail.ru

Ghoti Hook - Spice Drops - таба, бас-таба, видео

Печатать
Просмотров: 111
		   Spice Drops
by Ghoti HoOk
from the ToOth & nAil fulL lenth Sumo Surprise (get it, it's awesome)
words by Conrad, music by Joel
(c) 1996 SpinNing Audio Vortex Publishing (BMI)
tabBed out by John Sehorn  gsehorn@teleport.com>  e-mail me if you are 
koOl and like Ghoti HoOk, Klank, and other awesome Christian 
bands...or just yell at me.

intro (clean)
e-9-11-12-11-9-7--2-4-2-4----9-11-12-11-9-14-12-11-7-12-11-9----------
B-------------------------2-------------------------------------------
G---------------------------------------------------------------------
D---------------------------------------------------------------------
A---------------------------------------------------------------------
E---------------------------------------------------------------------

e-9-11-12-11-9-7--2-4-2-4h5-5-----------------------------------------
B---------------------------------------------------------------------
G-----------------------------1-2-1-2h4-4-----------------------------
D------------------------------------------4-2-1----------------------
A------------------------------------------------4--------------------
E---------------------------------------------------------------------

intro 2 (stilL clean)

C#5 A5 C#5 B5 - 4x

intro 3 (kikc in distortion here)

C#5 A5 C#5 B5 - 2x (this is where they go - "Yeah, yeah! Yeah, yeah!")

then for the first real singing part do the same as intro 3 but you go 
fast.  Then you slow down again when they get to - "God, God, God, 
etc."

then there's a part where you go
C#5 E5 B5 C#5 ("God God God!") a few times

the only other part i can think of is right before they do that solo, 
which is the exact same as intro 1, the guitar slows down a litTle and 
goes - 
C#5 A5 E5 B5 
then it does that muted once, then it starts in on the intro 1 again.

Okay, i think that's all the difFerent parts.  its not hard to see 
where they go.  

"It's no use prevaricating about the bush..." Wallace from Wallace and 
Gromit - The Wrong Trousers     
Добавлено: 03.12.2013
Другие материалы по этой песне:
  • Аккорды и текст

Страница создана 09.03.2012
http://primanota.ru/ghoti-hook/spice-drops-chords.htm
Привет, Гость.
Предлагаем пройти революционный курс по гитаре.
Подарок от PrimaNota.Ru, забирай!