PrimaNota.ru - самый крупный в мире бесплатный архив песенных текстов, аккордов, табулатур и нот


Ghoti Hook - Scared Am I - таба, бас-таба, видео

Регистрация Запомнить меня
Войти через:  Facebook Google Twitter Vk Yandex Mail.ru

Ghoti Hook - Scared Am I - таба, бас-таба, видео

Печатать
Просмотров: 137
		   Song: Scared am I
Artist: Ghoti Hook
Album: Sumo Suprise
Lyrics by Ghoti Hook
(c) 1996 Tooth and Nail Records

Tabbed out by Tim Lopez (SprnklrHed@aol.com)
CORRECTED BY Robbie Moore (robmoore@ols.net)
________________________________________________________________
:Sprinkler Head's Christian Alternative/Punk/Rock Guitar Chords:
:http://members.aol.com/sprnklrhed                             :
________________________________________________________________


/ = Slide Down
x = Mute with you left hand by not pressing 
    all the way down on the frets.


Power Chords used:

    F#  D   A   E   E(h)
e |-----------------------------|
B |-----------------------------|
G |-----7-----------9-----------|
D |-4---7---7---2---9-----------|
A |-4---5---7---2---7-----------|
E |-2---5---5---0---7-----------|

Here's how it goes:

Intro:

Guitar 1

e |-------------------------------|
B |-------------------------------|
G |-------------------------------|
D |---11-11----11---------12---9--|
A |-9-------12----12--12----11----|
E |-------------------------------|

Guitar 2

A |--1/9------------------------|

After that Play...

e |-----------------------------|
B |-----------------------------|
G |---11---11----11---9---11----|(use your own judgement
D |-----------------------------|on how many times to play the F#)
A |-----------------------------|
E |-----------------------------|

After all that...
e |----------------------------------------------|
B |----------------------------------------------|
G |------------7-x-7-x-7-------------------------|
D |-4-x-4-x-4--7-x-7-x-7--7-x-7-x-7--2-x-2-x-2---|
A |-4-x-4-x-4--5-x-5-x-5--7-x-7-x-7--2-x-2-x-2---|
E |-2-x-2-x-2--5-x-5-x-5--5-x-5-x-5--0-x-0-x-0---|

e |----------------------------------------------|
B |----------------------------------------------|
G |------------7-x-7-x-7-------------9-x-9-x-9---|
D |-4-x-4-x-4--7-x-7-x-7--7-x-7-x-7--9-x-9-x-9---|
A |-4-x-4-x-4--5-x-5-x-5--7-x-7-x-7--7-x-7-x-7---|
E |-2-x-2-x-2--5-x-5-x-5--5-x-5-x-5--7-x-7-x-7---|

e |----------------------------------------------|
B |----------------------------------------------|
G |------------7-x-7-x-7-------------------------|
D |-4-x-4-x-4--7-x-7-x-7--7-x-7-x-7--2-x-2-x-2---|
A |-4-x-4-x-4--5-x-5-x-5--7-x-7-x-7--2-x-2-x-2---|
E |-2-x-2-x-2--5-x-5-x-5--5-x-5-x-5--0-x-0-x-0---|

e |----------------------------------------------|
B |----------------------------------------------|
G |------------7-x-7-x-7-------------9-----------|
D |-4-x-4-x-4--7-x-7-x-7--7-x-7-x-7--9-----------|
A |-4-x-4-x-4--5-x-5-x-5--7-x-7-x-7--7-----------|
E |-2-x-2-x-2--5-x-5-x-5--5-x-5-x-5--7-----------|



------
(Speed's up a little and loses the mute thingy.)

F# D A E
F# D A E(h)

First Verse:
F#                                 D
She's late for the first time, she don't know where she is,
    A                     E
she doesn't know where to go
F#                   D
lost in her driving, angry and crying, 
A                       E(h)
she don't know what she knows
F#                         D
how could this happen, she thought she was careful
A                     E
a tear comes into her eye
F#                              D
now lost on a strange road, she pulls to a dead stop
A                               E(h)
she bows her head and starts to cry

(chorus)
F#              A        E
She starts to cry, 
                     F#  A        E(h)
she says, "Scared Am I"

Guitar 1
e |------------------------------|
B |------------------------------|
G |------------------------------|
D |----11----11----------11-9-9-9|
A |--9----12----12-12-12---------|
E |------------------------------|

Guitar 2
F# C# D B
F# C# D A

Second Verse:

F#                       D
She gets out of her car, she steps out in the cold
    A                             E
and thinks of what she's been through
F#                   D
no one around her, no one to help her
 A                          E(h)
to tell her what she should do
F#                   D
"am I alone now?", "am I disowned now?"
A                            E
she stares into the clouded sky
F#                         D
rain starts to fall down, mixing with her tears
    A                                E(h)
she falls on her knees and starts to cry

**Chorus**

e |----------------------------------------------|
B |----------------------------------------------|
G |------------7-x-7-x-7-------------------------|
D |-4-x-4-x-4--7-x-7-x-7--7-x-7-x-7--2-x-2-x-2---|
A |-4-x-4-x-4--5-x-5-x-5--7-x-7-x-7--2-x-2-x-2---|
E |-2-x-2-x-2--5-x-5-x-5--5-x-5-x-5--0-x-0-x-0---|

e |----------------------------------------------|
B |----------------------------------------------|
G |------------7-x-7-x-7-------------9--9--9--9--|
D |-4-x-4-x-4--7-x-7-x-7--7-x-7-x-7--9--9--9--9--|
A |-4-x-4-x-4--5-x-5-x-5--7-x-7-x-7--7--7--7--7--|
E |-2-x-2-x-2--5-x-5-x-5--5-x-5-x-5--7--7--7--7--|

  F#                         D
The rain smooth and steady, falls on to her face
   A                         E
the rain it seems to be quite warm
  F#                           D
she can't help but wonder, the soft rumbling thunder
    F#                         E(h)
the soothing rain despite the storm
   F#                         D
is trying to tell her, that things will be better
      A                            E
there's hope that springs into her eye
   F#                          D
she knows in her future, that things will be all right
    A                            E(h)
she lifts her head and starts to cry

 (Chorus)

End

Well, This is it... I changed the intro from the other 
version cause I thought that this one sounded more like it.
This is a fairly easy song to play, try playing with the CD 
to get the timing and everything else should just come to 
you. E-mail me if you have any questions and goto my home page
to find alot more Ghoti Hook and other Punk group's tabs. 
http://members.aol.com/sprnklrhed/
And E-mail me Sprnklrhed@aol.com     
Добавлено: 17.07.2013
Другие материалы по этой песне:
  • Аккорды и текст

Страница создана 02.03.2012
http://primanota.ru/ghoti-hook/scared-am-i-chords.htm
Привет, Гость.
Предлагаем пройти революционный курс по гитаре.
Подарок от PrimaNota.Ru, забирай!