PrimaNota.ru - самый крупный в мире бесплатный архив песенных текстов, аккордов, табулатур и нот


Ghoti Hook - Never - аккорды и текст, таба, видео

Регистрация Запомнить меня
Войти через:  Facebook Google Twitter Vk Yandex Mail.ru

Ghoti Hook - Never - аккорды и текст, таба, видео

Печатать
Просмотров: 111
Never
Ghoti Hook
		   Song: Never
Artist: Ghoti Hook
Album: Sumo Surprise
Words and Music by Joel and Conrad
(c)1996 Spinning Audio Vortex Pub. (BMI)
Tabbed out by Brian  Blamed@worldnet.att.net>



Wow this was a tuff song to figger out :^) (at least for my limited intelligence!)
Please email me if you liked this =) 

the only tab term I use in this tab is: PM (palm mute) so that's all ya gotta
know =) Hehehehee...

Okay.. this is the intro part:

Guitar ONE plays this
e|-------------------------------------------------------------------------|
b|-------------------------------------------------------------------------|
g|-5-----7-----5---5-----5-----5---4-----4-----4---2-----2-----2-----------|
d|---7-7---7-7---7---3-3---3-3---3---5-5---5-5---5---2-2---2-2---2---------|
a|-------------------------------------------------------------------------|
E|-------------------------------------------------------------------------|

PM ~ ~ ~ ~ ~ ~ ~ ~ ~ ~ ~ ~ ~ ~ ~ ~ ~ ~ ~ ~ ~ ~ ~ ~ ~ ~ ~ ~ ~ ~ ~ ~ ~ ~ ~ ~

Guitar TWO just sits there and builds up the A powerchord =)

Then it goes (chords)

A F G A
A F G A

then play the same chords twice more for the verse
then when he says:
"my mind is spinning..."
play
F G
F G
(verse)
F G A
F G A
F G A

F         G
"No Never, No Never"

Then all that repeats throughout the song
Then comes the fun part =)

solo part
e|-------------------------------------------------------------------------|
b|-------------------------------------------------------------------------|
g|-5-----5-----5---7-----7-----7---10------10------10----9-------9-----9---|
d|---7-7---7-7---7---9-9---9-9---9---12-12---12-12----12---10-10--10-10-10-|
a|-------------------------------------------------------------------------|
E|-------------------------------------------------------------------------|

e|-------------------------------------------------------------------------|
b|-------------------------------------------------------------------------|
g|-5-----5-----5---7-----7-----7---4-----4-----4---2-----2-----2-----------|
d|---7-7---7-7---7---9-9---9-9---9---5-5---5-5---5---2-2---2-2---2---------|
a|-------------------------------------------------------------------------|
E|-------------------------------------------------------------------------|

play that part twice, but the second time you play it... a second palm muted
guitar comes in playing A
Then comes this... now play the part below with GUITAR ONE twice

e|-------------------------------------------------------------------------|
b|-------------------------------------------------------------------------|
g|-5-5-5-5-5-5-5-5-7-7-7-7-7-7-7-7-4-4-4-4-4-4-4-4-2-2-2-2-2-2-2-2---------|
d|-7-7-7-7-7-7-7-7-9-9-9-9-9-9-9-9-5-5-5-5-5-5-5-5-2-2-2-2-2-2-2-2---------|
a|-------------------------------------------------------------------------|
E|-------------------------------------------------------------------------|
Now... at the same time you play that with G... play this with guitar two:

e|-------------------------------------------------------------------------|
b|-------------------------------------------------------------------------|
g|---------------------------------7-7-7-7-7-7-7-7-------------------------|
d|-7-7-7-7-7-7-7-7-5-5-5-5-5-5-5-5-7-7-7-7-7-7-7-7-7-7-7-7-7-7-7-7---------|
a|-7-7-7-7-7-7-7-7-5-5-5-5-5-5-5-5-5-5-5-5-5-5-5-5-7-7-7-7-7-7-7-7---------|
E|-5-5-5-5-5-5-5-5-3-3-3-3-3-3-3-3-----------------5-5-5-5-5-5-5-5---------|
e|-------------------------------------------------------------------------|
b|-------------------------------------------------------------------------|
g|-------------------------------------------------------------------------|
d|-3-3-3-3-3-3-3-3-5-5-5-5-5-5-5-5-2-2-2-2-2-2-2-2-7-7-7-7-7-7-7-7---------|
a|-3-3-3-3-3-3-3-3-5-5-5-5-5-5-5-5-2-2-2-2-2-2-2-2-7-7-7-7-7-7-7-7---------|
E|-1-1-1-1-1-1-1-1-3-3-3-3-3-3-3-3-0-0-0-0-0-0-0-0-5-5-5-5-5-5-5-5---------|

The first time you play this part^ Palm mute it REALLY heavy, then play it
again louder, then play it AGAIN with the little solo thing on top =)
then on to the LAST VERSE!:
Same chords as the first verse =)
play the little solo AGAIN and the other guitar plays an A chord palm muted
and builds up to the final note... everything ends on A
I hope you all apprecciate this =) I have NEVER seen a tab for this song
ANYWHERE this should be almost perfect.. I might have missed a note here
or there.. but it plays perfectly with the cd... (I think I have too much time
on my hands =) This is prolly my favorite song (To play and to listen to) I
think it's incredible =)

        -Brian (Blamed@worldnet.att.net)     
Добавлено: 26.10.2013
Другие материалы по этой песне:
  • Аккорды и текст

Страница создана 29.08.2013
http://primanota.ru/ghoti-hook/never-chords.htm
Привет, Гость.
Предлагаем пройти революционный курс по гитаре.
Подарок от PrimaNota.Ru, забирай!