PrimaNota.ru - самый крупный в мире бесплатный архив песенных текстов, аккордов, табулатур и нот


Ghost - Year Zero - таба, бас-таба, видео

Регистрация Запомнить меня
Войти через:  Facebook Google Twitter Vk Yandex Mail.ru

Ghost - Year Zero - таба, бас-таба, видео

Печатать
Просмотров: 151
-------------------------------------------------------------------------------
                             YEAR ZERO - Ghost
-------------------------------------------------------------------------------
Tabbed by: gateway01

Tuning: Drop D

* Some of these guitar parts are hidden under the choir, but they're there.


e|---------------------------------------------------------------------------|   
B|---------------------------------------------------------------------------|   
G|---------------------------------------------------------------------------|   
D|-12-----12---------12-----12---------12-----12---------12-----12-----------|   
A|---------------------------------------------------------------------------|  
D|----0000---00000000---0000---00000000---0000---00000000---0000---00000000--|    
      ....   ........   ....   ........   ....   ........   ....   ........
e|---------------------------------------------------------------------------|    |------|
B|---------------------------------------------------------------------------|    |------|
G|---------------------------------------------------------------------------|    |----5-|
D|-12-----12---------12-----12---------12-----12---------12-----12\----------|    |-/7---|
A|---------------------------------------------------------------------------|    |------|
D|----0000---00000000---0000---00000000---0000---00000000---0000-------------|    |------|
      ....   ........   ....   ........   ....   ........   ....   
e|---------------------------------------------------------------------------|
B|---------------------------------------------------------------------------|
G|-7--------------9----------9-10--------------------------------------------|
D|-x--------------x----------x-x---------------------------------------------|
A|-5--------------7----------7-8----------------------------0h3h4------------|
D|---000000000000---00000000------000000000000-0-x-x-0-x-x-------------------|
     ............   ........      ............ ^     ^
e|---------------------------------------------------------------------------|
B|---------------------------------------------------------------------------|
G|-7--------------9----------9-10--------------------------------------------|
D|-x--------------x----------x-x----------------------------8----------------|
A|-5--------------7----------7-8----------------------------6----------------|
D|---000000000000---00000000------000000000000-0-x-x-0-x-x-------------------|
     ............   ........      ............ ^     ^



 Since dawn of time the fate of man is that of lice 
e|---------------------------------------------------------------------------|
B|---------------------------------------------------------------------------|
G|---------------------------------------------------------------------------|
D|---------------------------------------------------------------------------|
A|---------------------------------------------------------------------------|
D|-0000000000000000000000000000000000000000000000000000000000000000----------|
   ................................................................
Equal as parasites and moving without eyes
e|---------------------------------------------------------------------------|
B|---------------------------------------------------------------------------|
G|---------------------------------------------------------------------------|
D|-------------------------------------------------------------8-------------|
A|-------------------------------------------------------------6-------------|
D|-000000000000000000000000000000000000000000000000000000000000--------------|
   ............................................................
A day of reckoning when penance, its to burn
e|---------------------------------------------------------------------------|
B|---------------------------------------------------------------------------|
G|---------------------------------------------------------------------------|
D|---------------------------------------------------------------------------|
A|-555555555555555533333333333333366666666666666665555555555555555-----------|
D|---------------------------------------------------------------------------|
   ...............................................................
Come down together now and say the words that you'll learn
e|---------------------------------------------------------------------------|
B|---------------------------------------------------------------------------|
G|---------------------------------------------------------------------------|
D|---------------------------------------------------------------------------|
A|-55555555555555533333333333333331111111111111111---------------------------|
D|------------------------------------------------4--4-----------------------|



e|---------------------------------------------------------------------------|
B|---------------------------------------------------------------------------|
G|---------------------------------------------------------------------------|
D|-7---9---10--9---9-9-9-9-9-9-9-9-12-12-12-12-12-12-12-12-------------------| x4
A|-5---7---8---7---7-7-7-7-7-7-7-7-10-10-10-10-10-10-10-10-------------------|
D|---------------------------------------------------------------------------|



Crestfallen kings and queens comforting in their faith 
e|---------------------------------------------------------------------------|
B|---------------------------------------------------------------------------|
G|---------------------------------------------------------------------------|
D|---------------------------------------------------------------------------|
A|---------------------------------------------------------------------------|
D|-0000000000000000000000000000000000000000000000000000000000000000----------|
   ................................................................
Unbeknownst to them is the presence of the wraith
e|---------------------------------------------------------------------------|
B|---------------------------------------------------------------------------|
G|---------------------------------------------------------------------------|
D|-------------------------------------------------------------8-------------|
A|-------------------------------------------------------------6-------------|
D|-000000000000000000000000000000000000000000000000000000000000--------------|
   ............................................................
Since fate of man is equal to the fate of lies
e|---------------------------------------------------------------------------|
B|---------------------------------------------------------------------------|
G|---------------------------------------------------------------------------|
D|---------------------------------------------------------------------------|
A|-555555555555555533333333333333366666666666666665555555555555555-----------|
D|---------------------------------------------------------------------------|
   ...............................................................
As new dawn rises you shalt recognize now behold the lord of flies
e|---------------------------------------------------------------------------|
B|---------------------------------------------------------------------------|
G|---------------------------------------------------------------------------|
D|---------------------------------------------------------------------------|
A|-55555555555555533333333333333331111111111111111---------------------------|
D|------------------------------------------------4--4/11--11----------------|



e|---------------------------------------------------------------------------|
B|---------------------------------------------------------------------------|
G|---------------------------------------------------------------------------|
D|-7---9---10--9---9-9-9-9-9-9-9-9-12-12-12-12-12-12-12-12-------------------|
A|-5---7---8---7---7-7-7-7-7-7-7-7-10-10-10-10-10-10-10-10-------------------|
D|---------------------------------------------------------------------------|

e|---------------------------------------------------------------------------|
B|---------------------------------------------------------------------------|
G|---------------------------------------------------------------------------|
D|-7---9---10--9---9-9-9-9-9-9-9-9-12--12--12--12----------------------------|
A|-5---7---8---7---7-7-7-7-7-7-7-7-10--10--10--10----------------------------|
D|------------------------------------0---0---0---0--------------------------|

e|-----------------------------------------------------------------------------|
B|-----------------------------------6------10brb------------------------------|
G|---/6---6-7-9-7--9h10-7---9-10-7-------7---------/6---6-7-9brb-7-9--9brb-7---|
D|------7---------------------------------------------7------------------------|
A|-----------------------------------------------------------------------------|
D|-----------------------------------------------------------------------------|

e|-----------------------------------------------------------------------------|
B|-6---10--------------5-------------6-----------------------------------------|
G|---7----9----5---5-7---7/9-9b-7---7--5-7-----/6---6-7-9-7-9h10-7--9-10-7-----|
D|-----------5-5-5-5-----------------------5\-----7----------------------------|
A|-----------------------------------------------------------------------------|
D|-----------------------------------------------------------------------------|

e|-----------------------------------------------------------------------------|
B|---6---10~~~~~~~~------------------------------------------------------------|
G|-7---7---------------2~~~~~~~~-----------------------------------------------|
D|-----------------------------------------------------------------------------|
A|-----------------------------------------------------------------------------|
D|-----------------------------------------------------------------------------|



e|-----------------------------------------------------------------------------|
B|-----------------------------------------------------------------------------|
G|----------101010101010101099999999-------------------------------------------|
D|--777777778-8-8-8-8-8-8-8-7777777799999999-----------------------------------| x3
A|--55555555------------------------77777777-----------------------------------|
D|-----------------------------------------------------------------------------|

e|-----------------------------------------------------------------------------|
B|-----------------------------------------------------------------------------|
G|----------10101010101010109999999999999999-----------------------------------|
D|--777777778-8-8-8-8-8-8-8-7777777777777777-0-0-------------------------------|
A|--55555555---------------------------------0-0-------------------------------|
D|-------------------------------------------0-0-------------------------------|


e|-----------------------------------------------------------------------------------|
B|-----------------------------------------------------------------------------------|
G|-----------------------------------------------------------------------------------|
D|-0-------1010101010101010777777770-0012121212-0-0012121212101010101010101055555555-|
A|-0-------1010101010101010777777770-0012121212-0-0012121212101010101010101055555555-|
D|-0-------1010101010101010777777770-0012121212-0-0012121212101010101010101055555555-|

e|-----------------------------------------------------------------------------|
B|-----------------------------------------------------------------------------|
G|-----------------------------------------------------------------------------|
D|-0-0012121212-0-0012121212101010101010101055555555---------------------------| x2
A|-0-0012121212-0-0012121212101010101010101055555555---------------------------|
D|-0-0012121212-0-0012121212101010101010101055555555---------------------------|

e|-----------------------------------------------------------------------------|
B|-----------------------------------------------------------------------------|
G|-7-7-7-7-9-9-9-9-10101010141414149-9-9-109-109-9-8-8-8-9-8-9-8-8-------------|
D|-0-0-0-0-0-0-0-0-0-0-0-0-0-0-0-0-0-0-0-0-0-0-0-0-0-0-0-0-0-0-0-0-------------|
A|-----------------------------------------------------------------------------|
D|-----------------------------------------------------------------------------|
                                   . . . . . . . . . . . . . . . .
e|-----------------------------------------------------------------------------|
B|-----------------------------------------------------------------------------|
G|-7-7-7-7-9-9-9-9-10101010141414149-9-9-109-109-9-1212121212121212------------|
D|-0-0-0-0-0-0-0-0-0-0-0-0-0-0-0-0-0-0-0-0-0-0-0-0-0-0-0-0-0-0-0-0-------------|
A|-----------------------------------------------------------------------------|
D|-----------------------------------------------------------------------------|
                                   . . . . . . . . 
************************************

| /   slide up
| \   slide down
| h   hammer-on
| p   pull-off
| ~   vibrato
| +   harmonic
| x   Mute note
| b   Bend
| pb  Pre-bend
| br  Bend release
| pbr Pre-bend release
| brb Bend release bend

************************************
Добавлено: 03.09.2013
Другие материалы по этой песне:

Страница создана 03.09.2013
http://primanota.ru/ghost/year-zero-chords.htm
Привет, Гость.
Предлагаем пройти революционный курс по гитаре.
Подарок от PrimaNota.Ru, забирай!