PrimaNota.ru - самый крупный в мире бесплатный архив песенных текстов, аккордов, табулатур и нот


Ghost - Genesis - таба, видео

Регистрация Запомнить меня
Войти через:  Facebook Google Twitter Vk Yandex Mail.ru

Ghost - Genesis - таба, видео

Печатать
Просмотров: 216
-------------------------------------------------------------------------------
                             GENESIS - Ghost
-------------------------------------------------------------------------------
Tabbed by: Kyle Van Koevering
E-mail: kyle.vankoevering@gmail.com

Tuning: One step down (D G C F A D)

d|---------------------------------------------------------------------------|
A|---------------------------------------------------------------------------|
F|--------7-7------------7-7-----------5-------------------------------------|
C|-2-2----5-5-----2-2----5-7----2-2----5-------------------------------------|
G|-2-2----5-5-----2-2----5-5----2-2----3-------------------------------------|
D|-0-0------------0-0-----------0-0------------------------------------------|

d|---------------------------------------------------------------------------|
A|---------------------------------------------------------------------------|
F|4--------2-2---------------------------------------------------------------|
C|4-x24----2-2---------------------------------------------------------------|
G|2--------0-0---------------------------------------------------------------|
D|---------------------------------------------------------------------------|

d|---------------------------------------------------------------------------|
A|---------------------------------------------------------------------------|
F|4-----5-----7--------------------------------------------------------------|
C|4-x24-5-x12-7-x12----------------------------------------------------------|
G|2-----3-----5--------------------------------------------------------------|
D|---------------------------------------------------------------------------|

d|---------------------------------------------------------------------------|
A|---------------------------------------------------------------------------|
F|11-11p9---11----11p9---12-11-----------------------------------------------|
C|--------9------------9-------12--------------------------------------------|
G|--------------------------------12-----------------------------------------|
D|---------------------------------------------------------------------------|

d|---------------------------------------------------------------------------|
A|---------------------------------------------------------------------------|
F|-11-11-9---11----11-9---12-11-------11----14-11----------------------------|
C|---------9------------9-------12-------12----------------------------------|
G|---------------------------------12----------------------------------------|
D|---------------------------------------------------------------------------|

d|---------------------------------------------------------------------------|
A|---------------------------------------------------------------------------|
F|------11-------14-12-11----9-11-12-9----11-12-19-16----16-14-16-17-16-14---|
C|-9-10-------12-----------------------------------------------------------14|
G|---------------------------------------------------------------------------|
D|---------------------------------------------------------------------------|

d|---------------------------------------------------------------------------|
A|---------------------------------------------------------------------------|
F|---16---16-14-16-17-16-14-12----11-12-14-19--------------------------------|
C|17-------------------------------------------------------------------------|
G|---------------------------------------------------------------------------|
D|---------------------------------------------------------------------------|


************************************

| /   slide up
| \   slide down
| h   hammer-on
| p   pull-off
| ~   vibrato
| +   harmonic
| x   Mute note
| b   Bend
| pb  Pre-bend
| br  Bend release
| pbr Pre-bend release
| brb Bend release bend

************************************
Добавлено: 01.11.2013
Другие материалы по этой песне:
  • Аккорды и текст

Страница создана 01.11.2013
http://primanota.ru/ghost/genesis-chords.htm
Привет, Гость.
Предлагаем пройти революционный курс по гитаре.
Подарок от PrimaNota.Ru, забирай!