PrimaNota.ru - самый крупный в мире бесплатный архив песенных текстов, аккордов, табулатур и нот


Ghost - Con Clavi Con Dio - таба, видео

Регистрация Запомнить меня
Войти через:  Facebook Google Twitter Vk Yandex Mail.ru

Ghost - Con Clavi Con Dio - таба, видео

Печатать
Просмотров: 112
Уроки эстрадного вокала в Санкт-Петербурге
                                                Con Clavi Con Dio - Ghost

Tab by Tom Green-Morgan

Drop D Tuning (DADGBe)

Key:

~~~~ = vibrato/held note

bu   = Bend up

=============================================================================

Riff 1 - Guitar 1

e ---------------------------------------------------------------|
B ---------------------------------------------------------------|
G ---------------------------------------------------------------|
D ---------------------------------------------------------------|
A -3-5---5-----3-5---5-----3-5---5-----3-5-5-5-3-----------------|
D -----0-----0-----0-----0-----0-----0-----------6---------------|

Riff 1 - Guitar 2

e ---------------------------------------------------------------|
B ---------------------------------------------------------------|
G ---------------------------------------------------------------|
D ---------------------------------------------------------------|
A -3-5---5-----3-5---5-----3-5---5-------------------------------|
D -----0-----0-----0-----0-----0-----0-6-8-8-8-6-2---------------|

Riff 1 - Guitar 3

e ---------------------------------------------------------------|
B -15~~~~~~~~~~~~~~~~etc-----------------------------------------|
G ---------------------------------------------------------------|
D ---------------------------------------------------------------|
A ---------------------------------------------------------------|
D ---------------------------------------------------------------|

^just hold the note for a semibreve each bar

Then:

All Guitars

e ---------------------------------------------------------------|
B ---------------------------------------------------------------|
G ---------------------------------------------------------------|
D -1--------------4----------------------------------------------|
A -1--------------4----------------------------------------------|
D -1--------------4----------------------------------------------|

=============================================================================

Riff 2 (Verse Riff) - Guitar 1

e -------------------------|-------------------------|-----------|
B -------------------------|-------------------------|-----------|
G -------------------------|-------------------------|-----------|
D -------------------------|-------------------------|-----------|
A -------------------------|-------------3-5-5-5-3---|-----------|
D -1-0-0-1-0-0-1-0-0-1-0-0-|-1-0-0-1-0-0-----------6-|-----------|

Riff 2 - Guitar 2

e -------------------------|-------------------------|-----------|
B -------------------------|-------------------------|-----------|
G -------------------------|-------------------------|-----------|
D -------------------------|-------------------------|-----------|
A -------------------------|-------------------------|-----------|
D -1-0-0-1-0-0-1-0-0-1-0-0-|-1-0-0-1-0-0-6-8-8-8-6-2-|-----------|

=============================================================================

Riff 3 (Chorus) - Guitars 1, 2 & 3

e -----------------|---------|--------------|--------------|-----|
B -----------------|---------|--------------|--------------|-----|
G -7==-------------|---------|--------------|--------------|-----|
D -7==-------------|---------|--------------|--------------|-----|
A -5==-5-5-4-5-7-4-|-8-7-5---|-888888888888-|-777777777777-|-----|
D -----------------|-------7-|-888888888888-|-777777777777-|-----|

                             | ------Play this bit in triplets ---

e --------------|-------|-------|---------|----------------------|
B --------------|-------|-------|---------|----------------------|
G --------------|-------|-------|---------|----------------------|
D --------------|-------|-------|---------|----------------------|
A -666666666666-|-14~~~-|-12~~~-|-15---10-|-17~~~~~~~~~----------|
D -666666666666-|-14~~~-|-12~~~-|-15---10-|-17~~~~~~~~~----------|

----------------|

=============================================================================

Riff 4 (evil bit) - Guitars 1,2 & 3

e ---------------------------------------------------------------|
B ---------------------------------------------------------------|
G ---------------------------------------------------------------|
D ---------------------------------------------------------------|
A -1-0-0-1-0-0-1-0-0-1-0-0-1-0-0-1-0-0-1-0-0-1-------------------|
D ---------------------------------------------------------------|

=============================================================================

Riff 1 Again

=============================================================================

Riff 2 Again - 'Demigaaaaaaaaahhhhhhhd'

=============================================================================

Riff 3 Again

=============================================================================

Riff 5 - Guitar 1 or 2

e -------------------------|-------|-----------------------------|
B -------------------------|-------|-----------------------------|
G -------------------------|-------|-----------------------------|
D -------------------------| <= x4 |-----------------------------|
A -------------------------|-------|-----------------------------|
D -1-0-1-0-1-0-1-0-1-0-1-0-|-------|-----------------------------|

e -------------------------|-------|-----------------------------|
B -------------------------|-------|-----------------------------|
G -------------------------|-------|-----------------------------|
D -------------------------| <= x4 |-----------------------------|
A -------------------------|-------|-----------------------------|
D -3-4-3-4-3-4-3-4-3-4-3-4-|-------|-----------------------------|

e -------------------------|-------|-----------------------------|
B -------------------------|-------|-----------------------------|
G -------------------------|-------|-----------------------------|
D -------------------------| <= x4 |-0---------------------------|
A -------------------------|-------|-0---------------------------|
D -1-0-1-0-1-0-1-0-1-0-1-0-|-------|-0---------------------------|

                                     |
                                     This chord is on the first beat of the bass part, 
before riff 1 comes back in again

at the end of the bass part.

=============================================================================

Solo - Guitar 1 (Guitars 2 & 3 play Riff 1, then Riff 3 underneath)

e ---------------------------------------------------------------|
B -------15----13-15-------15----13-15---------------------------|
G ----14----------------14---------------------------------------|
D -12-------12-------12-------12---------------------------------|
A ---------------------------------------------------------------|
D ---------------------------------------------------------------|

e -------------------15----11------------------------------------|
B -------15----13-15----11-------15~~~~~~~~----------------------|
G ----14---------------------------------------------------------|
D -12-------12----------------12---------------------------------|
A ---------------------------------------------------------------|
D ---------------------------------------------------------------|

|----------------------------- x3 -------------------------------|

e ---------|-13-12------|---------|--------|------8-|-7-8-10-8---|
B ---------|---------11-|-10---8--|-9---7--|-10-----|------------|
G ---------|------------|---------|--------|------5-|-4-5-7--5---|
D -7~~~~~~-|------------|---------|--------|--------|------------|
A ---------|------------|---------|--------|--------|------------|
D ---------|------------|---------|--------|--------|------------|

e -11~~~~~~~~~~---------13---8---12---5--------------------------|
B ---------------------------------------------------------------|
G -8bu~~~~~~~~~--------------------------------------------------|
D ---------------------------------------------------------------|
A ---------------------------------------------------------------|
D ---------------------------------------------------------------|

=============================================================================

Riff 4 to the end :)
Добавлено: 31.08.2013
Другие материалы по этой песне:

Страница создана 17.06.2012
http://primanota.ru/ghost/con-clavi-con-dio-chords.htm
Привет, Гость.
Предлагаем пройти революционный курс по гитаре.
Подарок от PrimaNota.Ru, забирай!