PrimaNota.ru - самый крупный в мире бесплатный архив песенных текстов, аккордов, табулатур и нот


Ghost Town - Dreamer - таба, видео

Регистрация Запомнить меня
Войти через:  Facebook Google Twitter Vk Yandex Mail.ru

Ghost Town - Dreamer - таба, видео

Печатать
Просмотров: 207
Tuning: Drop C (Cgcfad)
I've did a playtrough of this if you need help - http://youtu.be/AzzfgPNfuqg

Keywords
\: Slide To
~: Let it ring
*: Strummed
#: Muted slightly
----------------------------------------------------------------------------|
            
C:-----------#000-#0000-#00-----------00-0-0-0-0---|
G:-5-1-4-0---#000-#0000-#00--5-1-4-0---------------|
C:-------------------------------------------------|
F:-------------------------------------------------|
A:-------------------------------------------------|
D:-------------------------------------------------|

C:----------#0000000000-----------#00---#00---#00----|
G:-5-1-4-0--#0000000000--5-1-4-0--#00---#00---#00----|
C:-----------------------------------7-----7-----7---|
F:---------------------------------------------------|
A:-----------------------------------10----10----10--|
D:---------------------------------------------------|
"If I die before I shine"
C:-------------------------------------|
G:-\12-10-\12-10-8-7-5---\12-10-\12~---| 2x
C:-------------------------------------| In my cover the second time
F:-------------------------------------| I also add the octaves but they 
A:-------------------------------------| actually don't
D:-------------------------------------|
"A place to rest, A place to hide"
C:-----------------------0--5-8--00--5-7-8-0-5-7-8-0000------------------|
G:-*12--*10--*8---*7------------------------------------------------------|
C:---------------------------------------------------------*7----*7-------|
F:-*14--*12--*10--*9---------------------------------------*7----*6-------|
A:---------------------------------------------------------*10---*10------|
D:------------------------------------------------------------------------|

C:--8-10-5-0-3--8-10-5-0-|
G:--8-10-5-0-3--8-10-5-0-| This Is all
C:-----------------------| Strummed
F:-----------------------|
A:-----------------------|
D:-----------------------|

C:-------------------------------------|
G:-\12-10-\12-10-8-7-5---\12-10-\12~---|
C:-------------------------------------| 
F:-------------------------------------|  
A:-------------------------------------| 
D:-------------------------------------|

Then here's a little part where i can only here the bass
But there's a little guitar trough it

C:-----------------#5-#0---#12-#8-12-8-11-7-11-7-11-7-11----|
G:-5-1-4-0-4-0-4--------------------------------------------|
C:----------------------------------------------------------|
F:----------------------------------------------------------|
A:----------------------------------------------------------|
D:----------------------------------------------------------|

C:-5-1-4-0-4-0-4-----*8--10---5--------|
G:-------------------*8--10---5--------|
C:-------------------*8--10---5--------|
F:----------------------------7--------|
A:----------------------------8--------|
D:-------------------------------------|

C:--8-10-5-0-3--8-10-5-0-|
G:--8-10-5-0-3--8-10-5-0-| This Is all
C:-----------------------| Strummed
F:-----------------------| 
A:-----------------------| 2x
D:-----------------------|

C:-----------------|
G:--7---7----------|
C:--7---6----------| All Strummed
F:--10--10---------|
A:-----------------|
D:-----------------|

Here's a part with no guitar

C:-----------#000-#0000-#00-----------00-0-0-0-0---|
G:-5-1-4-0---#000-#0000-#00--3-0-3-0---------------|
C:-------------------------------------------------|
F:-------------------------------------------------|
A:-------------------------------------------------|
D:-------------------------------------------------|

C:----------#0000000000-----------#00---#00---#00----|
G:-5-1-4-0--#0000000000--3-0-3-0--#00---#00---#00----|
C:----------------------------------7----7----7------|
F:---------------------------------------------------|
A:----------------------------------10---10---10-----|
D:---------------------------------------------------|

C:--8-10-5-0-3--8-10-5--------|
G:--8-10-5-0-3--8-10-5--7--7--| This Is all
C:----------------------7--6--| Strummed
F:----------------------10-10-| 
A:----------------------------| 
D:----------------------------|

C:--8-10-5--8-0-|
G:--8-10-5--8-0-| This Is all
C:--------------| Strummed
F:--------------|
A:--------------|
D:--------------|

C:--8-10-5-0-3--8-10-5--------|
G:--8-10-5-0-3--8-10-5--7--7--| This Is all
C:----------------------7--6--| Strummed
F:----------------------10-10-| 
A:----------------------------| 3x
D:----------------------------|

----------------------------------------------------------------------------|
Hope this helped! Youtube.com/VAALVLA                                       |
----------------------------------------------------------------------------|
Добавлено: 26.10.2013
Другие материалы по этой песне:
  • Аккорды и текст

Страница создана 26.10.2013
http://primanota.ru/ghost-town/dreamer-chords.htm
Привет, Гость.
Предлагаем пройти революционный курс по гитаре.
Подарок от PrimaNota.Ru, забирай!