PrimaNota.ru - самый крупный в мире бесплатный архив песенных текстов, аккордов, табулатур и нот


Ghost Runner on Third - H - таба, видео

Регистрация Запомнить меня
Войти через:  Facebook Google Twitter Vk Yandex Mail.ru

Ghost Runner on Third - H - таба, видео

Печатать
Просмотров: 35
-------------------------------------------------------------------------------
                             H - Ghost Runner on Third
-------------------------------------------------------------------------------
Tabbed by: ethanc07

Tuning: Standard

I couldn't find any tabs for Ghost Runner on Third anywhere online and I'm a 
big fan of Jonny Craig and all his work so I decided to make my own. 
I know this isn't much but it's better than nothing.


Guitar I
e|-----------------------------------|
B|-----------------------------------|
G|--2-2--4--2--4h5p4p0---------------|   x8
D|-----------------------------------|
A|-----------------------------------|
E|-----------------------------------|


Guitar II
e|-----------------------------------|---------------------------------------|
B|-----------------------------------|---------------------------------------|
G|---2---4---5---4---7---5---4---5---|---2---4---5---4---7---5---4---5-------|
D|-----------------------------------|---------------------------------------|
A|-----------------------------------|---------------------------------------|
E|-----------------------------------|---------------------------------------|

e|-----------------------------------|---------------------------------------|
B|-----------------------------------|---------------------------------------|
G|---2---4---5---4---7---5---4---5---|---7---5---7---9---12------------------|
D|-----------------------------------|---------------------------------------|
A|-----------------------------------|---------------------------------------|
E|-----------------------------------|---------------------------------------|


e|---------------------------------------------------------------------------|
B|---------------------------------------------------------------------------|
G|---4---5---12-------4---5---12-------4---12----2------4---12----2----------|   x2
D|---------------------------------------------------------------------------|
A|---------------------------------------------------------------------------|
E|---------------------------------------------------------------------------|




************************************

| /   slide up
| \   slide down
| h   hammer-on
| p   pull-off
| ~   vibrato
| +   harmonic
| x   Mute note
| b   Bend
| pb  Pre-bend
| br  Bend release
| pbr Pre-bend release
| brb Bend release bend

************************************
Добавлено: 01.05.2016
Другие материалы по этой песне:
  • Аккорды и текст

Страница создана 01.05.2016
http://primanota.ru/ghost-runner-on-third/h-chords.htm
Привет, Гость.
Предлагаем пройти революционный курс по гитаре.
Подарок от PrimaNota.Ru, забирай!