PrimaNota.ru - самый крупный в мире бесплатный архив песенных текстов, аккордов, табулатур и нот


Ghost Bc - Year Zero - таба, бас-таба, видео

Регистрация Запомнить меня
Войти через:  Facebook Google Twitter Vk Yandex Mail.ru

Ghost Bc - Year Zero - таба, бас-таба, видео

Печатать
Просмотров: 320
-------------------------------------------------------------------------------
                             Year Zero - Ghost BC
-------------------------------------------------------------------------------
My first tab so this might be wrong lol.

Tuning: Full Step Down
     pm.....    . . . . . . . .     . . . .                  . . . . . . . . . . . .
D|------------------------------|-----------------------|----------------------------|
A|------------------------------|-----------------------|----------------------------|
F|------------------------------|-----------------------|-12-------------------------|
C|----------[x7]----------------|--------------------13-|-x--------------------------|
G|------------------------------|--------------12/14----|-10-------------------------|
D|-7-0-0-0-0--7-0-0-0-0-0-0-0-0-|-7-0-0-0-0-7-----------|----0-0-0-0-0-0-0-0-0-0-0-0-|

     . . . . . . . . . . . .       . . . . . . . . . . .     . .  . .                                     
D|-----------------------------|-------------------------|----------------------|
A|-----------------------------|-------------------------|----------------------|
F|-11------------------------8-|-9-----------------------|-9-----9--------------|
C|-X-------------------------x-|-x-----------------------|-x-----x-----------13-|
G|-9-0-0-0-0-0-0-0-0-0-0-0-0-6-|-7-0-0-0-0-0-0-0-0-0-0-0-|-7-----7-----12/14----|
D|-----------------------------|-------------------------|-0-0-0-0-0-0----------|

      . . . . . . . . . . . .     . . . . . . . . . . . .       . . . . . . . . . . . .          
D|----------------------------|-----------------------------|---------------------------|
A|----------------------------|-----------------------------|---------------------------|
F|-12-------------------------|-11------------------------8-|-9-------------------------|
C|-x--------------------------|-x-------------------------x-|-x-------------------------|
G|-10-------------------------|-9-------------------------6-|-7-------------------------|
D|----0-0-0-0-0-0-0-0-0-0-0-0-|---0-0-0-0-0-0-0-0-0-0-0-0---|---0-0-0-0-0-0-0-0-0-0-0-0-|

     . .   . . 
D|------------------------|
A|------------------------|
F|-9-----9-----10---------|
C|-x-----x-----10---------|
G|-7-----7-----8----------|
D|-0-0-0-0-0-0------------|


************************************

| /   slide up
| \   slide down
| h   hammer-on
| p   pull-off
| ~   vibrato
| +   harmonic
| x   Mute note
| b   Bend
| pb  Pre-bend
| br  Bend release
| pbr Pre-bend release
| brb Bend release bend

************************************
Добавлено: 19.12.2015
Другие материалы по этой песне:
  • Аккорды и текст

Страница создана 30.11.2013
http://primanota.ru/ghost-bc/year-zero-chords.htm
Привет, Гость.
Предлагаем пройти революционный курс по гитаре.
Подарок от PrimaNota.Ru, забирай!