PrimaNota.ru - самый крупный в мире бесплатный архив песенных текстов, аккордов, табулатур и нот


Ghinzu - Horse - бас-таба, видео

Регистрация Запомнить меня
Войти через:  Facebook Google Twitter Vk Yandex Mail.ru

Ghinzu - Horse - бас-таба, видео

Печатать
Просмотров: 149
-------------------------------------------------------------------------------
                              Horse - Ghinzu
-------------------------------------------------------------------------------

Tabbed By : superfranki

Tuning: Standard

Verse 1:
  | + . . . + . . . + . . . + . . . | + . . . + . . . + . . . + . . . |
G |---------------------------------|---------------------------------|
D |---------------------------------|-5-------------------------------|
A |-5-------------------------------|---------------------------------|
E |---------------------------------|---------------------------------|

  | + . . . + . . . + . . . + . . . | + . . . + . . . + . . . + . . . |
G |---------------------------------|---------------------------------|
D |---------------------------------|---------------------------------|
A |-4-------------------------------|-5-------------------------------|
E |---------------------------------|---------------------------------|

  | + . . . + . . . + . . . + . . . | + . . . + . . . + . . . + . . . |
G |---------------------------------|---------------------------------|
D |---------------------------------|-5-----------------------7h8\----|
A |-5-------------------------------|---------------------------------|
E |---------------------------------|---------------------------------|

  | + . . . + . . . + . . . + . . . | + . . . + . . . + . . . + . . . |
G |---------------------------------|---------------------------------|
D |---------------------------------|---------------------------------|
A |-4-------------------------------|-5-------------------------------|
E |---------------------------------|---------------------------------|

Chorus:
  | + . . . + . . . + . . . + . . . | + . . . + . . . + . . . + . . . |
G |---------------------------------|---------------------------------|
D |---------------------------------|---------------------------------|
A |-5---------------3---------------|---------------------------------|
E |---------------------------------|-6-----------5---3-------6-------|

  | + . . . + . . . + . . . + . . . | + . . . + . . . + . . . + . . . |
G |---------------------------------|---------------------------------|
D |---------------------------------|---------------------------------|
A |-6-------------------------------|-3h5p3---------0h3-x-3-----0-3-x-|
E |-----------------6-------3-------|---------------------------------|

  | + . . . + . . . + . . . + . . . | + . . . + . . . + . . . + . . . |
G |---------------------------------|---------------------------------|
D |---------------------------------|---------------------------------|
A |-5-------------0-5-x-5-----------|-5~------------------------------|
E |-------------------------------5-|---------------------------------|


  | + . . . + . . . + . . . + . . . | + . . . + . . . + . . . + . . . |
G |---------------------------------|---------------------------------|
D |------  Rest for 3 bars  --------|---------------------------------|
A |---------------------------------|-------------------------15\-----|
E |---------------------------------|---------------------------------|

Verse 2:
  | + . . . + . . . + . . . + . . . | + . . . + . . . + . . . + . . . | |
G |---------------------------------|---------------------------------| |
D |---------------------------------|-5-------5-x-5---7h8\------------| |
A |-5---------------5-x-5-----------|-------5-------------------------| |
E |---------------5-------------5---|---------------------------------| |
                                                                        | x2
  | + . . . + . . . + . . . + . . . | + . . . + . . . + . . . + . . . | |
G |---------------------------------|---------------------------------| |
D |---------------------------------|---------------------------------| |
A |-4-------------------------------|-5---------------5-x-5-------5-x-| |
E |---------------6-5---5-------5---|---------------5-----------5-----| |


(Chorus)


| /  slide up 
| \  slide down
| h  hammer-on
| p  pull-off
| ~  vibrato
| +  harmonic
| x  Mute note
===============================================================================
Добавлено: 22.05.2012
Другие материалы по этой песне:
  • Аккорды и текст

Страница создана 22.05.2012
http://primanota.ru/ghinzu/horse-chords.htm
Привет, Гость.
Предлагаем пройти революционный курс по гитаре.
Подарок от PrimaNota.Ru, забирай!